Desi Chords:

0 comment(s) so far...have your say!

Yeh Kya Hua (Amar Prem) : Tabs


qrcode for - Yeh Kya Hua (Amar Prem) : TabsSong: Yeh Kya Hua
Artist: Kishore Kumar, R D Burman
From: Amar Prem (1971)


View:
{ Chords } - { Strum } - { Tabs } - { Lyrics } - { PDF } - { Videos }



Guitar Tabs:
Chorus:
E------------------------------------
A------------------------------------
D------------------------------------
G------------------------------------
B-56--5-56--5-68---88---------h6-----
e---33----33----87---5-3h5-5p3-------

E------------------------------------
A------------------------------------
D------------------------------------
G--------------------7------75]]-----
B-----8-----------865-8-[+[5---------
e-5555-7775-7h8875-------------------

Verses:
E------------------------------------
A------------------------------------
D------------------------------------
G-4h5-------5--5p4p2-245-------5-----
B----3h53h53-53---------3h5p3-3------
e------------------------------------X2

E------------------------------------
A--------------------------5---------
D-5------5-----h5-5----535--3--------
G--24-542-2-3p2----2542--------------
B------------------------------------
e------------------------------------


What do these symbols mean? Reading Tabs...
http://desichords.blogspot.com/2010/02/yeh-kya-hua-amar-prem-3-tabs-n-pdf.html




Liked 'Yeh Kya Hua (Amar Prem) : Tabs' enough to share / save?

Yeh Kya Hua (Amar Prem) : Tabs

Comments: 0 comment(s)...have your say!

DesiChords Tip:

Tune your guitar before you start playing.^Top^


 


# Hosted for free on Blogspot.com / "Powered by Blogger." Get yours today at www.blogger.com
# The material collected and made available through these sites is exclusively intended for private study, research & to provide study material for musicians - in good faith. (Copyrights)
# This site uses cookies to offer you a better browsing experience. Kindly read the Terms of Service & Privacy policy and continue only if you agree.
# Copyrights, wherever applicable: IndianGuitarChords.Blogspot.Com (™ ©) / Arindam Sarkar © - MMVIII - MMXVI