Desi Chords:

0 comment(s) so far...have your say!

Aadat (Jal) - Ab To Aadat Si Hai Mujhko : Tabs


qrcode for - Aadat (Jal) - Ab To Aadat Si Hai Mujhko : TabsSong: Aadat
Artist: Jal (band)
From: Aadat (album) (2004)


View:
{ Chords } - { Strum } - { Tabs } - { Lyrics } - { PDF } - { Videos }



Guitar Tabs
Verse 1 and like:
E--------------------------------------------------
A--------------------------------------------------
D-6---6-6--------------6---64h6-------------6------
G----6--------6-----6-----6--------6-----6-----4h6-
B--54----5445--4h554----54-----5445-4h554----54----
e--------------------------------------------------

Verse 2 and like:
E----------------------------------------
A----------------------------------------
D----------------------------------------
G--------------6-------------------------
B------754-4h54-4h5--------------------7-
e-44444------------44447-97(11)7755h7-4--


What do these symbols mean?
Reading Tabs...
http://desichords.blogspot.com/2010/03/aadat-jal-ab-to-aadat-si-hai-mujhko-3.html




Liked 'Aadat (Jal) - Ab To Aadat Si Hai Mujhko : Tabs' enough to share / save?

Aadat (Jal) - Ab To Aadat Si Hai Mujhko : Tabs

Comments: 0 comment(s)...have your say!

DesiChords Tip:

Tune your guitar before you start playing.^Top^


 


# Hosted for free on Blogspot.com / "Powered by Blogger." Get yours today at www.blogger.com
# The material collected and made available through these sites is exclusively intended for private study, research & to provide study material for musicians - in good faith. (Copyrights)
# This site uses cookies to offer you a better browsing experience. Kindly read the Terms of Service & Privacy policy and continue only if you agree.
# Copyrights, wherever applicable: IndianGuitarChords.Blogspot.Com (™ ©) / Arindam Sarkar © - MMVIII - MMXVI