Desi Chords:

0 comment(s) so far...have your say!

Aal Izz Well (3 Idiots) : Tabs


qrcode for - Aal Izz Well (3 Idiots) : TabsSong: Aal Izz Well (All Is Well)
Artist: Sonu Nigam, Shaan, Swanand Kirkire
From: 3 Idiots (2009)


View:
{ Chords } - { Strum } - { Tabs } - { Lyrics } - { PDF } - { Videos }



Guitar Tabs:
This is not a very tab / lead friendly song; its nearly all percussion. The "forced" tabs of the first part will be -

E------------------------------------
A-3---------31113-----------31113----
D--33-3333-3-------333-333-3---------
G------------------------------------
B------------------------------------
e------------------------------------

E----------------------------------------------
A----------------------------------------------
D----------------------------------------------
G-----------------0-------------0------------0-
B-3-3-1-13--13--13--1-3--1-3--13-1-3--1-3--13--
e---------30--30-------30---30------30---30----

E------------------------------------------------------
A------------------------------------------------------
D------------------------------------------------------
G-0003-0003-0003---------------------------------------
B---------------1-2------------------------------------
e------------------11-333-111-333-111-36-3p1h3-111-333-


What do these symbols mean?
Reading Tabs...
http://desichords.blogspot.com/2010/03/aal-izz-well-3-idiots-3-tabs-n-pdf.html




Liked 'Aal Izz Well (3 Idiots) : Tabs' enough to share / save?

Aal Izz Well (3 Idiots) : Tabs

Comments: 0 comment(s)...have your say!

DesiChords Tip:

Tune your guitar before you start playing.^Top^


 


# Hosted for free on Blogspot.com / "Powered by Blogger." Get yours today at www.blogger.com
# The material collected and made available through these sites is exclusively intended for private study, research & to provide study material for musicians - in good faith. (Copyrights)
# This site uses cookies to offer you a better browsing experience. Kindly read the Terms of Service & Privacy policy and continue only if you agree.
# Copyrights, wherever applicable: IndianGuitarChords.Blogspot.Com (™ ©) / Arindam Sarkar © - MMVIII - MMXVI