Desi Chords:

0 comment(s) so far...have your say!

Aawara Bhanvre (Sapney) : Tabs


qrcode for - Aawara Bhanvre (Sapney) : TabsSong: Awaara Bhavare (Hindi dubbing of "Poo Pookkum Oosai")
Artist: Malaysia Vasudevan, Hema Sardesai
From: Sapney (1997) (Hindi dubbing of Minsara Kanavu


View:
{ Chords } - { Strum } - { Tabs } - { Lyrics } - { PDF } - { Videos }



Guitar Tabs
Basic Verse 1, and like:
E------------------------------------
A------------------------------------
D------------------------------------
G----------------7---------------7---
B---888-6-575-875---888-6-575-875----
e-55---------5----55---------5-------

E---------------------------------------
A---------------------------------------
D---------------------------------------
G---------------------------------------
B---787------787--------------787-------
e-55---55-55----55-575(10)-875---3h53h5-

E-----------------------------------------------------------
A-----------------------------------------------------------
D-----------------------------------------------------------
G-----------------------------------------------------------
B-----------------------8-----------------------------------
e-578-88878-5578(10)-875--88878-557788(10)(10)(12)(10)h(12)-

E------------------------------------
A------------------------------------
D------------------------------------
G----------------7---------------7---
B---888-6-575-875---888-6-575-875----
e-55---------5----55---------5-------


What do these symbols mean?
Reading Tabs...
http://desichords.blogspot.com/2010/03/aawara-bhanvre-jo-haule-haule-gayein.html




Liked 'Aawara Bhanvre (Sapney) : Tabs' enough to share / save?

Aawara Bhanvre (Sapney) : Tabs

Comments: 0 comment(s)...have your say!

DesiChords Tip:

Tune your guitar before you start playing.^Top^


 


# Hosted for free on Blogspot.com / "Powered by Blogger." Get yours today at www.blogger.com
# The material collected and made available through these sites is exclusively intended for private study, research & to provide study material for musicians - in good faith. (Copyrights)
# This site uses cookies to offer you a better browsing experience. Kindly read the Terms of Service & Privacy policy and continue only if you agree.
# Copyrights, wherever applicable: IndianGuitarChords.Blogspot.Com (™ ©) / Arindam Sarkar © - MMVIII - MMXVI