Desi Chords:

0 comment(s) so far...have your say!

Ab Tere Bin Jee Lenge Hum (Aashiqui : Kumar Sanu) : Tabs


qrcode for - Ab Tere Bin Jee Lenge Hum (Aashiqui : Kumar Sanu) : TabsSong: Ab Tere Bin Jee Lenge Hum
Artist: Kumar Sanu
From: Aashiqui (1990)


View:
{ Chords } - { Strum } - { Tabs } - { Lyrics } - { PDF } - { Videos }



Guitar Tabs
Basic Chorus:
E---------------------------------------------------------------------
A-7--8-5857-77---8-5857-----------------------------------------------
D--6----------6-----------------------5-77----------------5-77-5-4-2--
G---4----------44-------6-6p4p2-6646-4-4----6-6p4p2-6646-4-4----------
B------------------------5----------5--------5----------5-------------
e---------------------------------------------------------------------

E-----------------------
A-7--8-5857-77---8-5857-
D--6----------6---------
G---4----------44-------
B-----------------------
e-----------------------

Basic Verse:
E------------------------------------
A------------------------------------
D-77---------777-77---------777------
G---446-467-4------446-467-4---------
B----------5--------------5----------
e------------------------------------

E------------------------------------
A-78-87-74-78-87-74-78-87---8-8877---
D---7--------7--------7--------------
G------------------------444---------
B------------------------------------
e------------------------------------

E------------------------------------------
A------------------------------------------
D--------77--------77-------777---------77-
G-666-476---666-476--666-476---4-666-476---
B------------------------------------------
e------------------------------------------

E------------------------------------
A-------------87---------------------
D--------777-5-----------------------
G--76-764----------------------------
B-5--5-------------------------------
e------------------------------------


What do these symbols mean?
Reading Tabs...
http://desichords.blogspot.com/2010/03/ab-tere-bin-jee-lenge-hum-aashiqui.html




Liked 'Ab Tere Bin Jee Lenge Hum (Aashiqui : Kumar Sanu) : Tabs' enough to share / save?

Ab Tere Bin Jee Lenge Hum (Aashiqui : Kumar Sanu) : Tabs

Comments: 0 comment(s)...have your say!

DesiChords Tip:

Tune your guitar before you start playing.^Top^


 


# Hosted for free on Blogspot.com / "Powered by Blogger." Get yours today at www.blogger.com
# The material collected and made available through these sites is exclusively intended for private study, research & to provide study material for musicians - in good faith. (Copyrights)
# This site uses cookies to offer you a better browsing experience. Kindly read the Terms of Service & Privacy policy and continue only if you agree.
# Copyrights, wherever applicable: IndianGuitarChords.Blogspot.Com (™ ©) / Arindam Sarkar © - MMVIII - MMXVI