Desi Chords:

0 comment(s) so far...have your say!

Allah Ke Bande Hansde (Kailash Kher) : Tabs


qrcode for - Allah Ke Bande Hansde (Kailash Kher) : TabsSong: Allah Ke Bande
Artist: Kailash Kher
From: Waisa Bhi Hota Hai Part II (2003)


View:
{ Chords } - { Strum } - { Tabs } - { Lyrics } - { PDF } - { Videos }



Guitar Tabs:
Basic Chorus:
E------------------------------------
A------------------------------------
D-----------5---------55-------------
G-----3--543-442-25422---------------
B-3333-53----------------------------
e-------------------------------X2---

E--------------------------------------------------
A--------------------------------------------------
D-45-5-5-------45-5-5-----45-5-5-45-5-5-45-5-5-----
G---2-2--55-542--2-2--542---2-2----2-2----2-2-2--2-
B--------------------------------------------------
e--------------------------------------------------

E----------------------------------------
A----------------------------------------
D-5------5-----5-----------------------5-
G----5-54---5-----5-----525-4h5555-2442--
B--33-3---33-3--33-353-3-----------------
e----------------------------------------X2


What do these symbols mean?Reading tabs...
http://desichords.blogspot.com/2010/03/allah-ke-bande-hansde-kailash-kher-3.html




Liked 'Allah Ke Bande Hansde (Kailash Kher) : Tabs' enough to share / save?

Allah Ke Bande Hansde (Kailash Kher) : Tabs

Comments: 0 comment(s)...have your say!

DesiChords Tip:

Tune your guitar before you start playing.^Top^


 


# Hosted for free on Blogspot.com / "Powered by Blogger." Get yours today at www.blogger.com
# The material collected and made available through these sites is exclusively intended for private study, research & to provide study material for musicians - in good faith. (Copyrights)
# This site uses cookies to offer you a better browsing experience. Kindly read the Terms of Service & Privacy policy and continue only if you agree.
# Copyrights, wherever applicable: IndianGuitarChords.Blogspot.Com (™ ©) / Arindam Sarkar © - MMVIII - MMXVI