Desi Chords:

0 comment(s) so far...have your say!

Awaarapan Banjarapan (Jism) : Tabs


qrcode for - Awaarapan Banjarapan (Jism) : TabsSong: Awaarapan Banjarapan
Artist: M.M.Kreem, Kay Kay
From: Jism (2003)


View:
{ Chords } - { Strum } - { Tabs } - { Lyrics } - { PDF } - { Videos }



Guitar Tabs
Chorus:
E------------------------------------
A------------------------------------
D-----------------------8-8----------
G---7------------------7---5---------
B-65---------(10)-5h666-----55-------
e----6-68(10)------------------------X2

Basic Verse:
E------------------------------------
A------------------------------------
D------------------------------------
G------------------------------------
B----------------8-8-----------------
e-5658-565(10)88--5-5h6-6(10)6p55----X2

E------------------------------------
A------------------------------------
D--------------------------8-8-------
G-------------------------7---5------
B----------8-8-----6-5h666-----55----
e-56(10)9-6---586-5------------------

E------------------------------------
A------------------------------------
D-----------------------8-8----------
G---7------------------7---5---------
B-65---------(10)-5h666-----55-------
e----6-68(10)------------------------


What do these symbols mean?Reading Tabs...
http://desichords.blogspot.com/2010/03/awaarapan-banjarapan-jism-3-tabs-n-pdf.html




Liked 'Awaarapan Banjarapan (Jism) : Tabs' enough to share / save?

Awaarapan Banjarapan (Jism) : Tabs

Comments: 0 comment(s)...have your say!

DesiChords Tip:

Tune your guitar before you start playing.^Top^


 


# Hosted for free on Blogspot.com / "Powered by Blogger." Get yours today at www.blogger.com
# The material collected and made available through these sites is exclusively intended for private study, research & to provide study material for musicians - in good faith. (Copyrights)
# This site uses cookies to offer you a better browsing experience. Kindly read the Terms of Service & Privacy policy and continue only if you agree.
# Copyrights, wherever applicable: IndianGuitarChords.Blogspot.Com (™ ©) / Arindam Sarkar © - MMVIII - MMXVI