Desi Chords:

0 comment(s) so far...have your say!

Badi Muskil Hai (Anjaam : Abhijeet) : Tabs


qrcode for - Badi Muskil Hai (Anjaam : Abhijeet) : TabsSong: Badi Muskil Hai
Artist: Abhijeet
From: Anjaam (1994)


View:
{ Chords } - { Strum } - { Tabs } - { Lyrics } - { PDF } - { Videos }



Guitar Tabs:
Basic Chorus:
E----------------------------------------------------
A-----------------------------66-66------------------
D-----66----66-6-------------------3-333-33----------
G-5353--5353---------656-35653--3-------5-------6563-
B---------------434-4----------------------446-4-----
e----------------------------------------------------

E------------------------------------
A------------------------------------
D-66-------------356-----------------
G---3-563-653-33---------------------
B---------------4--------------------
e------------------------------------X2

Basic Verse:
E-------------------------------------
A-------------------------------------
D---6----------3366---6----------3366-
G--5------3-333------5------3-333-----
B-4--444-4----------4--444-4----------
e-------------------------------------

E---------------------------------------
A---------8-----------------------------
D----6---6----6-6-36--------------------
G-53--353---53-3-------6----5--6--6-563-
B--------------------66-6-44-4--64------
e---------------------------------------

E------------------------------------
A------------------------------------
D-66-----44-356----------------------
G---3563---5-------------------------
B------------------------------------
e------------------------------------

E------------------------------------
A------------------------------------
D-66-------------356-----------------
G---3-563-653-33---------------------
B---------------4--------------------
e------------------------------------


What do these symbols mean? Reading Tabs...
http://desichords.blogspot.com/2010/03/badi-muskil-hai-khoya-mera-dil-hai.html




Liked 'Badi Muskil Hai (Anjaam : Abhijeet) : Tabs' enough to share / save?

Badi Muskil Hai (Anjaam : Abhijeet) : Tabs

Comments: 0 comment(s)...have your say!

DesiChords Tip:

Tune your guitar before you start playing.^Top^


 


# Hosted for free on Blogspot.com / "Powered by Blogger." Get yours today at www.blogger.com
# The material collected and made available through these sites is exclusively intended for private study, research & to provide study material for musicians - in good faith. (Copyrights)
# This site uses cookies to offer you a better browsing experience. Kindly read the Terms of Service & Privacy policy and continue only if you agree.
# Copyrights, wherever applicable: IndianGuitarChords.Blogspot.Com (™ ©) / Arindam Sarkar © - MMVIII - MMXVI