Desi Chords:

0 comment(s) so far...have your say!

Chaiyya Chaiyya (Dil Se) : Tabs


qrcode for - Chaiyya Chaiyya (Dil Se) : TabsSong: Chaiyya Chaiyya
Artist: Sukhwinder Singh, Sapna Awasthi, A. R. Rahman
From: Dil Se (1998)


View:
{ Chords } - { Strum } - { Tabs } - { Lyrics } - { PDF } - { Videos }



Guitar Tabs:
Basic chorus:
E------------------------------------
A------------------------------------
D-755----------55-77-77-77-----------
G----44-44-44-4----------------------
B------------------------------------
e------------------------------------ (repeats)

E------------------------------------
A------------------------------------
D---------77-77-------7-7------------
G----7765---------7765---------------
B-555----------555-------------------
e------------------------------------ (repeats)

E------------------------------------
A------------------------------------
D-755----------55-77-77-77-----------
G----44-44-44-4----------------------
B------------------------------------
e------------------------------------ (repeats)


What do these symbols mean? Reading Tabs...
http://desichords.blogspot.com/2010/03/chaiyya-chaiyya-dil-se-3-tabs-n-pdf.html




Liked 'Chaiyya Chaiyya (Dil Se) : Tabs' enough to share / save?

Chaiyya Chaiyya (Dil Se) : Tabs

Comments: 0 comment(s)...have your say!

DesiChords Tip:

Tune your guitar before you start playing.^Top^


 


# Hosted for free on Blogspot.com / "Powered by Blogger." Get yours today at www.blogger.com
# The material collected and made available through these sites is exclusively intended for private study, research & to provide study material for musicians - in good faith. (Copyrights)
# This site uses cookies to offer you a better browsing experience. Kindly read the Terms of Service & Privacy policy and continue only if you agree.
# Copyrights, wherever applicable: IndianGuitarChords.Blogspot.Com (™ ©) / Arindam Sarkar © - MMVIII - MMXVI