Desi Chords:

0 comment(s) so far...have your say!

Chookar Mere Man Ko (Yaarana : Kishore, Amitabh) : Tabs


qrcode for - Chookar Mere Man Ko (Yaarana : Kishore, Amitabh) : TabsSong: Chookar Mere Man Ko
Artist: Kishore Kumar
From: Yaarana (1981)


View:
{ Chords } - { Strum } - { Tabs } - { Lyrics } - { PDF } - { Videos }



Guitar Tabs:
Basic Chorus and similar parts of the verse:
E------------------------------------------------------------
A------------------------------------------------------------
D------------------------------------------------------------
G---------46-------------------------------------------------
B-----7547--44-57-5------------------------------------------
e-44-4-----------4---775459-(11)(11)(11)-(11)99(11)-(12)(12)-
(repeats in parts)

Basic Verse (unique part):
E------------------------------------
A------------------------------------
D------------------------------------
G------4-----------------------------
B----75------------------------------
e-454---4-477797-(12)-(12)(10)97-----

E------------------------------------
A------------------------------------
D------------------------------------
G------------------------------------
B--------(10)p9-(10)(11)-------------
e-79(10)9---------------7------------


What do these symbols mean? Reading Tabs...
http://desichords.blogspot.com/2010/03/chookar-mere-man-ko-yaarana-kishore.html




Liked 'Chookar Mere Man Ko (Yaarana : Kishore, Amitabh) : Tabs' enough to share / save?

Chookar Mere Man Ko (Yaarana : Kishore, Amitabh) : Tabs

Comments: 0 comment(s)...have your say!

DesiChords Tip:

Tune your guitar before you start playing.^Top^


 


# Hosted for free on Blogspot.com / "Powered by Blogger." Get yours today at www.blogger.com
# The material collected and made available through these sites is exclusively intended for private study, research & to provide study material for musicians - in good faith. (Copyrights)
# This site uses cookies to offer you a better browsing experience. Kindly read the Terms of Service & Privacy policy and continue only if you agree.
# Copyrights, wherever applicable: IndianGuitarChords.Blogspot.Com (™ ©) / Arindam Sarkar © - MMVIII - MMXVI