Desi Chords:

0 comment(s) so far...have your say!

Deewana, Main Hoon Deewana Tera (Deewana : Sonu Nigam) : Tabs


qrcode for - Deewana, Main Hoon Deewana Tera (Deewana : Sonu Nigam) : TabsSong: Deewana Tera
Artist: Sonu Nigam
From: Deewana (1999)


View:
{ Chords } - { Strum } - { Tabs } - { Lyrics } - { PDF } - { Videos }



Guitar Tabs:
Basic Chorus:
E-------------------------------------------------
A-------------------------------------------------
D-------------------------------------------------
G-777-------777------------7----------------7-----
B----666-------666----7h875-8-875-78875-5775-8875-
e-------5555------5555----------------------------

E------------------------------------
A------------------------------------
D-7----7-----------------7-----------
G--67-7-67-76h7-667----74--667-7-6h7-
B----5----5--------5h75-------5------
e------------------------------------X2


What do these symbols mean? Reading Tabs...
http://desichords.blogspot.com/2010/03/deewana-main-hoon-deewana-tera-deewana.html




Liked 'Deewana, Main Hoon Deewana Tera (Deewana : Sonu Nigam) : Tabs' enough to share / save?

Deewana, Main Hoon Deewana Tera (Deewana : Sonu Nigam) : Tabs

Comments: 0 comment(s)...have your say!

DesiChords Tip:

Tune your guitar before you start playing.^Top^


 


# Hosted for free on Blogspot.com / "Powered by Blogger." Get yours today at www.blogger.com
# The material collected and made available through these sites is exclusively intended for private study, research & to provide study material for musicians - in good faith. (Copyrights)
# This site uses cookies to offer you a better browsing experience. Kindly read the Terms of Service & Privacy policy and continue only if you agree.
# Copyrights, wherever applicable: IndianGuitarChords.Blogspot.Com (™ ©) / Arindam Sarkar © - MMVIII - MMXVI