Desi Chords:

0 comment(s) so far...have your say!

Dekha Ek Khwab (Silsila : Kishore, Lata) : Tabs


qrcode for - Dekha Ek Khwab (Silsila : Kishore, Lata) : TabsSong: Dekha Ek Khwab
Artist: Lata Mangeshkar, Kishore Kumar
From: Silsila (1981)


View:
{ Chords } - { Strum } - { Tabs } - { Lyrics } - { PDF } - { Videos }



Guitar Tabs:
Basic Chorus:
E------------------------------------
A------------------------------------
D------------------------------------
G-------7-------75-------7-----------
B-68-866-8-866-8---68-866-8-866-66---
e---5----------------5---------------

E------------------------------------------------------------------
A------------------------------------------------------------------
D------------------------------------------------------------------
G------------------------------------------------------------------
B-(10)-----------------------------(10)-(10)----------(10)8-8--8-6-
e-----888-8(10)(10)-(10)8(10)(10)88---------(10)(10)88-------85-5--

E------------------------------------
A------------------------------------
D------------------------------------
G-------7-------75-------7-----------
B-68-866-8-866-8---68-866-8-866-66---
e---5----------------5---------------


What do these symbols mean? Reading Tabs...
http://desichords.blogspot.com/2010/03/dekha-ek-khwab-to-yeh-silsile-hue.html




Liked 'Dekha Ek Khwab (Silsila : Kishore, Lata) : Tabs' enough to share / save?

Dekha Ek Khwab (Silsila : Kishore, Lata) : Tabs

Comments: 0 comment(s)...have your say!

DesiChords Tip:

Tune your guitar before you start playing.^Top^


 


# Hosted for free on Blogspot.com / "Powered by Blogger." Get yours today at www.blogger.com
# The material collected and made available through these sites is exclusively intended for private study, research & to provide study material for musicians - in good faith. (Copyrights)
# This site uses cookies to offer you a better browsing experience. Kindly read the Terms of Service & Privacy policy and continue only if you agree.
# Copyrights, wherever applicable: IndianGuitarChords.Blogspot.Com (™ ©) / Arindam Sarkar © - MMVIII - MMXVI