Desi Chords:

0 comment(s) so far...have your say!

Dil Kya Kare Jab Kisi Se (Julie : Kishore Kumar) : Tabs


qrcode for - Dil Kya Kare Jab Kisi Se (Julie : Kishore Kumar) : TabsSong: Dil Kya Kare Jab Kisi Se
Artist: Kishore Kumar
From: Julie (1975)


View:
{ Chords } - { Strum } - { Tabs } - { Lyrics } - { PDF } - { Videos }



Guitar Tabs:
Basic Chorus:
E------------------------------------
A-6----------------------------------
D--6----6---6-6----6-----------------
G---34-3-36--4-4-4-------------------
B------------------------------------
e------------------------------------X2

E----------------------|--------------
A----------------------|--------------
D----------------------|-------6------
G----------2-2-----444-|------3-------
B-4444-4222---224-2----|--------------
e----------------------|-(X2)---------


What do these symbols mean? Reading Tabs...
http://desichords.blogspot.com/2010/03/dil-kya-kare-jab-kisi-se-julie-kishore.html




Liked 'Dil Kya Kare Jab Kisi Se (Julie : Kishore Kumar) : Tabs' enough to share / save?

Dil Kya Kare Jab Kisi Se (Julie : Kishore Kumar) : Tabs

Comments: 0 comment(s)...have your say!

DesiChords Tip:

Tune your guitar before you start playing.^Top^


 


# Hosted for free on Blogspot.com / "Powered by Blogger." Get yours today at www.blogger.com
# The material collected and made available through these sites is exclusively intended for private study, research & to provide study material for musicians - in good faith. (Copyrights)
# This site uses cookies to offer you a better browsing experience. Kindly read the Terms of Service & Privacy policy and continue only if you agree.
# Copyrights, wherever applicable: IndianGuitarChords.Blogspot.Com (™ ©) / Arindam Sarkar © - MMVIII - MMXVI