Desi Chords:

0 comment(s) so far...have your say!

Dil To Bachcha Hai Ji (Ishqiya) : Tabs


qrcode for - Dil To Bachcha Hai Ji (Ishqiya) : TabsSong: Dil To Bachcha Hai
Artist: Rahat Fateh Ali Khan
From: Ishqiya (2010)


View:
{ Chords } - { Strum } - { Tabs } - { Lyrics } - { PDF } - { Videos }



Guitar Tabs:
Verse 1:
E------------------------------------
A------------------------------------
D-----------7-76---------------------
G-66676-464--4-----------------------
B------------------------------------
e------------------------------------X4

Pre-Choruses:
E----------------------------------------
A----------------------------4--2--------
D--7-664--7-664-7-664-7h9764--44---------
G-4------4-----4-----6-----------11-1241-
B----------------------------------------
e----------------------------------------

Chorus:
E------------------------------------
A--------5--------5------------------
D-76444-4--76444-4--7646-6-76-4444---
G-----------------------4------------
B------------------------------------
e------------------------------------

Verses 2 and 3:
E------------------------------------
A------------------------------------
D----------------67------------------
G--7666-7666-7664--4-----------------
B-5----5----5------------------------
e------------------------------------X2

E------------------------------------
A------------------------------------
D--76667--------76667-------------6--
G-4-----4-6666-4-----4-6666-467-47---
B--------3------------3--------------
e------------------------------------


What do these symbols mean? Reading Tabs...
http://desichords.blogspot.com/2010/03/dil-to-bachcha-hai-ji-ishqiya-3-tabs-n.html




Liked 'Dil To Bachcha Hai Ji (Ishqiya) : Tabs' enough to share / save?

Dil To Bachcha Hai Ji (Ishqiya) : Tabs

Comments: 0 comment(s)...have your say!

DesiChords Tip:

Tune your guitar before you start playing.^Top^


 


# Hosted for free on Blogspot.com / "Powered by Blogger." Get yours today at www.blogger.com
# The material collected and made available through these sites is exclusively intended for private study, research & to provide study material for musicians - in good faith. (Copyrights)
# This site uses cookies to offer you a better browsing experience. Kindly read the Terms of Service & Privacy policy and continue only if you agree.
# Copyrights, wherever applicable: IndianGuitarChords.Blogspot.Com (™ ©) / Arindam Sarkar © - MMVIII - MMXVI