Desi Chords:

0 comment(s) so far...have your say!

Dream Girl, Kisi Shayar Ki Ghazal (Kishore) : Tabs


qrcode for - Dream Girl, Kisi Shayar Ki Ghazal (Kishore) : TabsSong: Dream Girl
Artist: Kishore Kumar
From: Dream Girl (1977)


View:
{ Chords } - { Strum } - { Tabs } - { Lyrics } - { PDF } - { Videos }



Guitar Tabs:
Basic Chorus:
E-------------------------------------------
A-------------------------------------------
D-44-43-----44-43---------------------6-----
G------3113------3113-44---33--------4-3-46-
B-----------------------444--222-2542-------
e-------------------------------------------

Basic Verse:
E------------------------------------
A------------------------------------
D------------------------------------
G-----------44-4---------------------
B--22-24-44-----242-2----------------
e-------2---------------------------- X2

E------------------------------------
A------------------------------------
D------6-666-------------------------
G-----4-4----3463-------1346---------
B-2542------------222542-------------
e------------------------------------


What do these symbols mean? Reading Tabs...
http://desichords.blogspot.com/2010/03/dream-girl-kisi-shayar-ki-ghazal.html




Liked 'Dream Girl, Kisi Shayar Ki Ghazal (Kishore) : Tabs' enough to share / save?

Dream Girl, Kisi Shayar Ki Ghazal (Kishore) : Tabs

Comments: 0 comment(s)...have your say!

DesiChords Tip:

Tune your guitar before you start playing.^Top^


 


# Hosted for free on Blogspot.com / "Powered by Blogger." Get yours today at www.blogger.com
# The material collected and made available through these sites is exclusively intended for private study, research & to provide study material for musicians - in good faith. (Copyrights)
# This site uses cookies to offer you a better browsing experience. Kindly read the Terms of Service & Privacy policy and continue only if you agree.
# Copyrights, wherever applicable: IndianGuitarChords.Blogspot.Com (™ ©) / Arindam Sarkar © - MMVIII - MMXVI