Desi Chords:

0 comment(s) so far...have your say!

Ek Ladki Ko Dekha To (1942 : Sanu) : Tabs


qrcode for - Ek Ladki Ko Dekha To (1942 : Sanu) : TabsSong: Ek Ladki Ko Dekha To
Artist: Kumar Sanu, Rahul Dev Burman
From: 1942: A Love Story (1994)


View:
{ Chords } - { Strum } - { Tabs } - { Lyrics } - { PDF } - { Videos }



Guitar Tabs:
Basic Verse:
E------------------------------------
A------------------------------------
D------------------------------------
G-3323-23-2-23-3323-23-2-23----------
B-----1--1-1-------1--1-1------------
e------------------------------------

E------------------------------------
A------------------------------------
D----3------3------3--55-1-33-33-----
G-332-20-232-23-232-20----0----------
B------------------------------------
e------------------------------------X2

E------------------------------------
A------------------------------------
D-3------3---------------------------
G--23-----23--3-3323-23-2-23---------
B----3111---31------1--1-1-----------
e------------------------------------


What do these symbols mean? Reading Tabs...
http://desichords.blogspot.com/2010/03/ek-ladki-ko-dekha-to-1942-love-story.html




Liked 'Ek Ladki Ko Dekha To (1942 : Sanu) : Tabs' enough to share / save?

Ek Ladki Ko Dekha To (1942 : Sanu) : Tabs

Comments: 0 comment(s)...have your say!

DesiChords Tip:

Tune your guitar before you start playing.^Top^


 


# Hosted for free on Blogspot.com / "Powered by Blogger." Get yours today at www.blogger.com
# The material collected and made available through these sites is exclusively intended for private study, research & to provide study material for musicians - in good faith. (Copyrights)
# This site uses cookies to offer you a better browsing experience. Kindly read the Terms of Service & Privacy policy and continue only if you agree.
# Copyrights, wherever applicable: IndianGuitarChords.Blogspot.Com (™ ©) / Arindam Sarkar © - MMVIII - MMXVI