Desi Chords:

0 comment(s) so far...have your say!

Har Kisiko Nahi Milta (Janbaaz) : Tabs, Notes


qrcode for - Har Kisiko Nahi Milta (Janbaaz) : Tabs, NotesSong: Har Kisiko Nahi Milta
Artist: Manhar, Sadhana Sargam
From: Janbaaz (1986)


View: {Chords} - {Strum & Analysis} - {Tabs} - {Plain Lyrics} - {Song & Videos}



Guitar Tabs:
Guitar Tabs:
Basic Chorus:
E------------------------------------
A------------------------------------
D-212-4224-203-332--212-4224-203-332-
G----1--------1--------1--------1----
B------------------------------------
e------------------------------------

E-----------------------------------------------
A-----------------------------------------------
D------------------------212-4224-203-332-3-332-
G-12444-------2-------------1--------1-----2----
B------32-222--1---31p00------------------------
e-----------------0-----------------------------

Basic Verse:
E-------------------------|-------------
A-------------------------|-------------
D-------------------------|------422p44-
G-1244-42-444-2----2-33-3-|-111-1-------
B--------1-----11-1-1-----|-------------
e---------------------(X2)|-------------

Guitar Lick (Interlude): {repeats}
E------------------------------------
A---------------------32-------------
D-23---2-23--23---2-20---------------
G---121----1---121-------------------
B------------------------------------
e------------------------------------
Original Scale: E major Learn What do these symbols mean: Reading Tabs...


What do these symbols mean? Reading Tabs...
http://desichords.blogspot.com/2010/03/har-kisiko-nahi-milta-janbaaz-3-tabs-n.html




Liked 'Har Kisiko Nahi Milta (Janbaaz) : Tabs, Notes' enough to share / save?

Har Kisiko Nahi Milta (Janbaaz) : Tabs, Notes

Comments: 0 comment(s)...have your say!

DesiChords Tip:

Tune your guitar before you start playing.^Top^


 


# Hosted for free on Blogspot.com / "Powered by Blogger." Get yours today at www.blogger.com
# The material collected and made available through these sites is exclusively intended for private study, research & to provide study material for musicians - in good faith. (Copyrights)
# This site uses cookies to offer you a better browsing experience. Kindly read the Terms of Service & Privacy policy and continue only if you agree.
# Copyrights, wherever applicable: IndianGuitarChords.Blogspot.Com (™ ©) / Arindam Sarkar © - MMVIII - MMXVI