Desi Chords:

0 comment(s) so far...have your say!

Is Mod Se Jate Hain (Aandhi : Kishore, Lata) : Tabs


qrcode for - Is Mod Se Jate Hain (Aandhi : Kishore, Lata) : TabsSong: Is Mod Se Jate Hain
Artist: Lata Mangeshkar, Kishore Kumar
From: Aandhi (1975)


View:
{ Chords } - { Strum } - { Tabs } - { Lyrics } - { PDF } - { Videos }



Guitar Tabs:
Basic Verse 1 and 4:
E------------------------------------------
A-----------------436------434-------------
D-6----6656-3-6663---3-6663---36-6----6656-
G--5653------3--------3-----------5653-----
B------------------------------------------
e------------------------------------------

E----------------------------------------------------
A---------------------------436------434-------------
D-66665-653-66665-653-3-6663---3-6663---36-6----6656-
G------3---------3-----3--------3-----------5653-----
B----------------------------------------------------
e----------------------------------------------------

Basic Verse 2 and 3:
E------------------------------
A------------------------------
D--------6---------------------
G-654-333-533-356---66-655-----
B----------------6-4--4--------
e------------------------------X2

E------------------------------
A----------66------------------
D------6-66--44-46455----------
G-65444--------3---------------
B------------------------------
e------------------------------

E----------------------------------------------------
A---------------------------436------434-------------
D-66665-653-66665-653-3-6663---3-6663---36-6----6656-
G------3---------3-----3--------3-----------5653-----
B----------------------------------------------------
e----------------------------------------------------


What do these symbols mean? Reading Tabs...
http://desichords.blogspot.com/2010/03/is-mod-se-jate-hain-aandhi-kishore-lata.html




Liked 'Is Mod Se Jate Hain (Aandhi : Kishore, Lata) : Tabs' enough to share / save?

Is Mod Se Jate Hain (Aandhi : Kishore, Lata) : Tabs

Comments: 0 comment(s)...have your say!

DesiChords Tip:

Tune your guitar before you start playing.^Top^


 


# Hosted for free on Blogspot.com / "Powered by Blogger." Get yours today at www.blogger.com
# The material collected and made available through these sites is exclusively intended for private study, research & to provide study material for musicians - in good faith. (Copyrights)
# This site uses cookies to offer you a better browsing experience. Kindly read the Terms of Service & Privacy policy and continue only if you agree.
# Copyrights, wherever applicable: IndianGuitarChords.Blogspot.Com (™ ©) / Arindam Sarkar © - MMVIII - MMXVI