Desi Chords:

0 comment(s) so far...have your say!

Jaaneman Jaaneman (Chhoti Si Baat) : Tabs


qrcode for - Jaaneman Jaaneman (Chhoti Si Baat) : TabsSong: Jaaneman Jaaneman Tere Do Nayan
Artist: Yesudas, Asha Bhosle, Salil Chowdhary
From: Chhoti Si Baat


View:
{ Chords } - { Strum } - { Tabs } - { Lyrics } - { PDF } - { Videos }



Guitar Tabs:
Chorus:
E-------------------------------------------------
A-------------------------------------------------
D-------------------------------------------------
G--------------------87-5888-7-------87-5--5--5---
B-666--------------86---------666--68----66-66-66-
e----(10)(10)(10)66--------------55--------------- X2

Basic Verse:
E---------------------------------------------------------
A---------------------------------------------------------
D---------------------------------------------------------
G----------------------------88--88--88--88---------------
B--6-6-6-6-6-6-6-6---------86--8---8---8---8-8888-8-------
e-6-6-6-6-6-6-6-6-66(10)865-----6---6---6---6------56s8-6- X2

E--------------------------------------
A--------------------------------------
D--------------------------------------
G--------------------------------------
B-------------------------888----------
e-(10)(10)(11)8-8(10)6-685---58-6-6-66-


What do these symbols mean? Reading Tabs...
http://desichords.blogspot.com/2010/03/jaaneman-jaaneman-tere-do-nayan-chhoti.html




Liked 'Jaaneman Jaaneman (Chhoti Si Baat) : Tabs' enough to share / save?

Jaaneman Jaaneman (Chhoti Si Baat) : Tabs

Comments: 0 comment(s)...have your say!

DesiChords Tip:

Tune your guitar before you start playing.^Top^


 


# Hosted for free on Blogspot.com / "Powered by Blogger." Get yours today at www.blogger.com
# The material collected and made available through these sites is exclusively intended for private study, research & to provide study material for musicians - in good faith. (Copyrights)
# This site uses cookies to offer you a better browsing experience. Kindly read the Terms of Service & Privacy policy and continue only if you agree.
# Copyrights, wherever applicable: IndianGuitarChords.Blogspot.Com (™ ©) / Arindam Sarkar © - MMVIII - MMXVI