Desi Chords:

0 comment(s) so far...have your say!

Mera Jeevan Kora Kagaz (Kishore Kumar) : Tabs


qrcode for - Mera Jeevan Kora Kagaz (Kishore Kumar) : TabsSong: Mera Jeevan Kora Kagaz
Artist: Kishore Kumar
From: Kora Kagaz (1974)


View:
{ Chords } - { Strum } - { Tabs } - { Lyrics } - { PDF } - { Videos }



Guitar Tabs:
Chorus:
E--------------------|----------------
A--------------------|----------------
D--------------------|----------------
G-6666-44--4------66-|----------------
B--------46--66664---|----------------
e--------------------|X2--------------

E------------------------------------
A------------------------------------
D------------------------------------
G---------------------------6--------
B-----74---------77-7-4766-4---------
e-4444--4444-4h66--4-----------------

E----------------------------------
A----------------------------------
D----------------------------------
G-6666-44--4------66---------------
B--------46--66664-----------------
e----------------------------------

Basic Verse:
E------------------------------------
A------------------------------------
D------------------------------------
G-----6-666----66-6666------------66-
B--764------764-------66666-7--764---
e-4--------4---------------4-44------

E------------------------------------
A------------------------------------
D------------------------------------
G-----66-6666------------66----------
B--764-------66666-7--764-------7----
e-4---------------4-44-------444-4---

E------------------------------------
A------------------------------------
D------------------------------------
G------------------4-----------------
B---------77-74766--6----------------
e-44-44-66--4------------------------

E----------------------------------
A----------------------------------
D----------------------------------
G-6666-44--4------66---------------
B--------46--66664-----------------
e----------------------------------


What do these symbols mean? Reading Tabs...
http://desichords.blogspot.com/2010/03/mera-jeevan-kora-kagaz-kora-kagaz.html




Liked 'Mera Jeevan Kora Kagaz (Kishore Kumar) : Tabs' enough to share / save?

Mera Jeevan Kora Kagaz (Kishore Kumar) : Tabs

Comments: 0 comment(s)...have your say!

DesiChords Tip:

Tune your guitar before you start playing.^Top^


 


# Hosted for free on Blogspot.com / "Powered by Blogger." Get yours today at www.blogger.com
# The material collected and made available through these sites is exclusively intended for private study, research & to provide study material for musicians - in good faith. (Copyrights)
# This site uses cookies to offer you a better browsing experience. Kindly read the Terms of Service & Privacy policy and continue only if you agree.
# Copyrights, wherever applicable: IndianGuitarChords.Blogspot.Com (™ ©) / Arindam Sarkar © - MMVIII - MMXVI