Desi Chords:

2 comment(s) so far...have your say!

Bade Achchhe Lagte Hain : Tabs


qrcode for - Bade Achchhe Lagte Hain : TabsSong: Bade Achchhe Lagte Hain
Artist: Amit Kumar, R. D. Burman
From: Balika Badhu (1976)


View:
{ Chords } - { Strum } - { Tabs } - { Lyrics } - { PDF } - { Videos }



Guitar Tabs:
Basic Chorus:
E------------------------------------
A------------------------------------
D------------------------------------
G------------------------------------
B--6-76-67---------9-----7-----67----
e-9-------6--67h9p7-6h7p6-4h6p4------

Basic Verse:
E------------------------------------------------
A------------------------------------------------
D------------------------------------------------
G------------------------------------------------
B-77-77-----67-6-64-667--------------------------
e------4h6p4-----------66-66-7h9p7-64-44-88-89---X2

E------------------------------------
A------------------------------------
D------------------------------------
G------------------------------------
B--6-76-67---------9-----7-----67----
e-9-------6--67h9p7-6h7p6-4h6p4------


What do these symbols mean? Reading Tabs...
http://desichords.blogspot.com/2010/04/bade-achchhe-lagte-hain-r-d-burman-amit.html




Liked 'Bade Achchhe Lagte Hain : Tabs' enough to share / save?

Bade Achchhe Lagte Hain : Tabs

Comments: 2 comment(s)...have your say!

vinodsaid...

mind blowing !!!
Awesome !

kahi nahi mil rahe the but yaha mil gaye. thanks.

Arindam Sarkarsaid...

Thanks and you're welcome. ;)

DesiChords Tip:

Tune your guitar before you start playing.^Top^


 


# Hosted for free on Blogspot.com / "Powered by Blogger." Get yours today at www.blogger.com
# The material collected and made available through these sites is exclusively intended for private study, research & to provide study material for musicians - in good faith. (Copyrights)
# This site uses cookies to offer you a better browsing experience. Kindly read the Terms of Service & Privacy policy and continue only if you agree.
# Copyrights, wherever applicable: IndianGuitarChords.Blogspot.Com (™ ©) / Arindam Sarkar © - MMVIII - MMXVI