Desi Chords:

0 comment(s) so far...have your say!

Beqarar Karke Humein (Hemant Kumar) : Tabs


qrcode for - Beqarar Karke Humein (Hemant Kumar) : TabsSong: Beqarar Karke Humein
Artist: Hemant Kumar
From: Bees Saal Baad (1962)


View:
{ Chords } - { Strum } - { Tabs } - { Lyrics } - { PDF } - { Videos }



Guitar Tabs:
Title lines:
E------------------------------------
A------------------------------------
D--8---------------------------------
G-8-8-8-----------------66888--------
B------679---97-779-6679-------------
e---------676------6-----------------

Verse 1:
E------------------------------------
A------------------------------------
D------------------------------------
G------------------------------------
B-----------------99-------988989----
e-(11)(11)66(11)66--6-67976----------X2

E--------------------------------------
A--------------------------------------
D--------------------------------------
G--------------------------------66888-
B--------------------9-7-779-6679------
e-6667(11)(11)(11)-66-6-----6----------

E------------------------------------
A------------------------------------
D--8---------------------------------
G-8-8-8-----------------66888--------
B------679---97-779-6679-------------
e---------676------6-----------------


What do these symbols mean? Reading Tabs...
http://desichords.blogspot.com/2010/04/beqarar-karke-humein-hemant-kumar-3.html




Liked 'Beqarar Karke Humein (Hemant Kumar) : Tabs' enough to share / save?

Beqarar Karke Humein (Hemant Kumar) : Tabs

Comments: 0 comment(s)...have your say!

DesiChords Tip:

Tune your guitar before you start playing.^Top^


 


# Hosted for free on Blogspot.com / "Powered by Blogger." Get yours today at www.blogger.com
# The material collected and made available through these sites is exclusively intended for private study, research & to provide study material for musicians - in good faith. (Copyrights, TOS & Privacy policy)
# Copyrights, wherever applicable: IndianGuitarChords.Blogspot.Com (™ ©) / Arindam Sarkar © - MMVIII - MMXIV