Desi Chords:

0 comment(s) so far...have your say!

Itna Na Mujhse Tu Pyaar Badha : Tabs


qrcode for - Itna Na Mujhse Tu Pyaar Badha : TabsSong: Itna Na Mujhse Tu Pyaar Badha
Artist: Talat Mahmood, Salil Choudhury
From: Chhaya (1961)


View:
{ Chords } - { Strum } - { Tabs } - { Lyrics } - { PDF } - { Videos }



Guitar Tabs:
Basic Chorus:
E------------------------------------
A------------------------------------
D-322232223222---------3-32020-------
G------------------2-20--------------
B-------------1-110------------------
e------------------------------------

E------------------------------------
A--------------------------323-------
D-200020002000--------32-20----------
G-------------4-4420-0---------------
B------------------------------------
e------------------------------------


What do these symbols mean? Reading Tabs...
http://desichords.blogspot.com/2010/04/itna-na-mujhse-tu-pyaar-badha-3-tabs-n.html




Liked 'Itna Na Mujhse Tu Pyaar Badha : Tabs' enough to share / save?

Itna Na Mujhse Tu Pyaar Badha : Tabs

Comments: 0 comment(s)...have your say!

DesiChords Tip:

Tune your guitar before you start playing.^Top^


 


# Hosted for free on Blogspot.com / "Powered by Blogger." Get yours today at www.blogger.com
# The material collected and made available through these sites is exclusively intended for private study, research & to provide study material for musicians - in good faith. (Copyrights)
# This site uses cookies to offer you a better browsing experience. Kindly read the Terms of Service & Privacy policy and continue only if you agree.
# Copyrights, wherever applicable: IndianGuitarChords.Blogspot.Com (™ ©) / Arindam Sarkar © - MMVIII - MMXVI