Desi Chords:

0 comment(s) so far...have your say!

Jaane Jaan Dhoondta (Asha, Kishore) : Tabs


qrcode for - Jaane Jaan Dhoondta (Asha, Kishore) : TabsSong: Jaane Jaan Dhoondta Phir Raha
Artist: Kishore Kumar, Asha Bhosle
From: Jawani Diwani (1972)


View:
{ Chords } - { Strum } - { Tabs } - { Lyrics } - { PDF } - { Videos }



Guitar Tabs:
Unique parts of verses 1, 3 and 6:
E------------------------------------
A------------------------------------
D----6-66-6664-446---446-66----------
G-644----3--------443---3------------
B------------------------------------
e------------------------------------(may repeat once)

E------------------------------------
A------------------------------------
D-------------------6-------6--------
G-66-----66-----44h6----44h6-------6-
B---5-754--5-754-----554-----554-54--
e------------------------------------

E------------------------------------
A------------------------------------
D----6-66-6664-446---446-66----------
G-644----3--------443---3------------
B------------------------------------
e------------------------------------(played in some)

Unique parts of verses 2, 4 and 5:
E------------------------------------
A------------------------------------
D--------------------7----7----------
G-6------6---------66---66--64-------
B--457774-457774-54---54---4---------
e------------------------------------(repeat once)

E--------------------------------------
A--------------------------------------
D----------------------4----------4----
G-66-----66-----6p444h6----6p444h6-----
B---5-754--5-754--------554--------554-
e--------------------------------------

E------------------------------------
A------------------------------------
D----6-66-6664-446---446-66----------
G-644----3--------443---3------------
B------------------------------------
e------------------------------------(played in some)


What do these symbols mean? Reading Tabs...
http://desichords.blogspot.com/2010/04/jaane-jaan-dhoondta-phir-raha-asha.html




Liked 'Jaane Jaan Dhoondta (Asha, Kishore) : Tabs' enough to share / save?

Jaane Jaan Dhoondta (Asha, Kishore) : Tabs

Comments: 0 comment(s)...have your say!

DesiChords Tip:

Tune your guitar before you start playing.^Top^


 


# Hosted for free on Blogspot.com / "Powered by Blogger." Get yours today at www.blogger.com
# The material collected and made available through these sites is exclusively intended for private study, research & to provide study material for musicians - in good faith. (Copyrights)
# This site uses cookies to offer you a better browsing experience. Kindly read the Terms of Service & Privacy policy and continue only if you agree.
# Copyrights, wherever applicable: IndianGuitarChords.Blogspot.Com (™ ©) / Arindam Sarkar © - MMVIII - MMXVI