Desi Chords:

0 comment(s) so far...have your say!

Kabhi Kabhie Mere Dil Mein : Tabs


qrcode for - Kabhi Kabhie Mere Dil Mein : TabsSong: Kabhi Kabhie Mere Dil Mein
Artist: Mukesh, Lata Mangeshkar
From: Kabhi Kabhie (1976)


View:
{ Chords } - { Strum } - { Tabs } - { Lyrics } - { PDF } - { Videos }



Guitar Tabs:
Basic Verse:
E------------------------------------
A------------------------------------
D---------------------3--------------
G--------2202-2---02p0---------------
B-11p0-31------311-------------------
e------------------------------------(repeat in Verse 1)

E------------------------------------
A------------------------------------
D---------------3-3-33320------------
G-22202-002-02p0---0-----------------
B------------------------------------
e------------------------------------(repeat in Verse 1)

E------------------------------------
A------------------------------------
D------------------------------------
G--22-------------------2------------
B-1--011-111h3-111-1-010-------------
e------------------------------------X2

E------------------------------------
A------------------------------------
D---------------3-3-33320------------
G-22202-002-02p0---0-----------------
B------------------------------------
e------------------------------------X2

Bridge:
E------------------------------------
A------------------------------------
D-33p22--------------3---------------
G------0-0000-000-2p0-0h22-----------
B------------------------------------
e------------------------------------

E------------------------------------
A------------------------------------
D-----3-333-033333p22-320------------
G-02p0-------------------------------
B------------------------------------
e------------------------------------X2

E------------------------------------
A------------------------------------
D------------------------------------
G-----------------------2------------
B-11p00-333-1---3-11-010-------------
e------------110-0-------------------X2

E------------------------------------
A------------------------------------
D---------------3-3-33320------------
G-22202-002-02p0---0-----------------
B------------------------------------
e------------------------------------X2


What do these symbols mean? Reading Tabs...
http://desichords.blogspot.com/2010/04/kabhi-kabhie-mere-dil-mein-khayal-aata.html




Liked 'Kabhi Kabhie Mere Dil Mein : Tabs' enough to share / save?

Kabhi Kabhie Mere Dil Mein : Tabs

Comments: 0 comment(s)...have your say!

DesiChords Tip:

Tune your guitar before you start playing.^Top^


 


# Hosted for free on Blogspot.com / "Powered by Blogger." Get yours today at www.blogger.com
# The material collected and made available through these sites is exclusively intended for private study, research & to provide study material for musicians - in good faith. (Copyrights)
# This site uses cookies to offer you a better browsing experience. Kindly read the Terms of Service & Privacy policy and continue only if you agree.
# Copyrights, wherever applicable: IndianGuitarChords.Blogspot.Com (™ ©) / Arindam Sarkar © - MMVIII - MMXVI