Desi Chords:

1 comment(s) so far...have your say!

Kaise Mujhe Tum Mil Gayi (Ghajini) : Tabs


qrcode for - Kaise Mujhe Tum Mil Gayi (Ghajini) : TabsSong: Kaise Mujhe
Artist: Shreya Ghoshal, Benny Dayal, A. R. Rahman
From: Ghajini (2008)


View:
{ Chords } - { Strum } - { Tabs } - { Lyrics } - { PDF } - { Videos }



Guitar Tabs:
Verse 1:
E-------------------------------------------------
A-------------------------------------------------
D--------------------------------------------43-3-
G------33-------3-3-33-35-------------5p33-33--3--
B-34643--3-34643---------33-366p44p3p1------------
e-------------------------------------------------

E----------------------------------------------------------
A----------------------------------------------------------
D--------55------------------------------------------------
G-------3--3-5-----------------------------3357-----5------
B-666643------33----3366------86h8666-3366------6655-588p6-
e---------------3366----3333-3-----------------------------

Verse 2:
E----------------------------------------------------------------
A----------------------------------------------------------------
D----------------------------------------------------------------
G----------------------------------------------------------------
B-------4-446-------------446s8-----------------4468------6------
e-666643-----33-88(11)(11)-----6655-86h866-3366------66655-588p6-

Second Chorus:
E------------------------------------
A------------------------------------
D------------------------------------
G----------------35------------------
B-4686-98434-3643--334-354-88644-----
e------------------------------------


What do these symbols mean? Reading Tabs...
http://desichords.blogspot.com/2010/04/kaise-mujhe-tum-mil-gayi-ghajini-3-tabs.html




Liked 'Kaise Mujhe Tum Mil Gayi (Ghajini) : Tabs' enough to share / save?

Kaise Mujhe Tum Mil Gayi (Ghajini) : Tabs

Comments: 1 comment(s)...have your say!

Rahul Kumarsaid...

ek scale upar se bjao

DesiChords Tip:

Tune your guitar before you start playing.^Top^


 


# Hosted for free on Blogspot.com / "Powered by Blogger." Get yours today at www.blogger.com
# The material collected and made available through these sites is exclusively intended for private study, research & to provide study material for musicians - in good faith. (Copyrights)
# This site uses cookies to offer you a better browsing experience. Kindly read the Terms of Service & Privacy policy and continue only if you agree.
# Copyrights, wherever applicable: IndianGuitarChords.Blogspot.Com (™ ©) / Arindam Sarkar © - MMVIII - MMXVI