Desi Chords:

0 comment(s) so far...have your say!

Kaisi Paheli Zindagani (Parineeta) : Tabs


qrcode for - Kaisi Paheli Zindagani (Parineeta) : TabsSong: Kaisi Paheli Zindagani
Artist: Sunidhi Chauhan
From: Parineeta


View:
{ Chords } - { Strum } - { Tabs } - { Lyrics } - { PDF } - { Videos }



Guitar Tabs:
Basic Theme: (repeats)
E------------------------------------
A------------------------------------
D------------------------------------
G--------------------6---------------
B--7-9---9--7-9---9-7----------------
e-7---676--7---676-------------------

E------------------------------------
A------------------------------------
D------------------------------------
G--6-8---8--6-8-8-8-64---------------
B-7---575--7---5-7-------------------
e------------------------------------

Unique parts in the verses:
E------------------------------------
A------------------------------------
D------------------------------------
G---------9--------------------------
B-79-----7--57--7-7------------------
e---67-76-----46---69--67------------


What do these symbols mean? Reading Tabs...
http://desichords.blogspot.com/2010/04/kaisi-paheli-zindagani-parineeta-3-tabs.html




Liked 'Kaisi Paheli Zindagani (Parineeta) : Tabs' enough to share / save?

Kaisi Paheli Zindagani (Parineeta) : Tabs

Comments: 0 comment(s)...have your say!

DesiChords Tip:

Tune your guitar before you start playing.^Top^


 


# Hosted for free on Blogspot.com / "Powered by Blogger." Get yours today at www.blogger.com
# The material collected and made available through these sites is exclusively intended for private study, research & to provide study material for musicians - in good faith. (Copyrights)
# This site uses cookies to offer you a better browsing experience. Kindly read the Terms of Service & Privacy policy and continue only if you agree.
# Copyrights, wherever applicable: IndianGuitarChords.Blogspot.Com (™ ©) / Arindam Sarkar © - MMVIII - MMXVI