Desi Chords:

0 comment(s) so far...have your say!

Meri Mehbooba, Kisi Roz Tumse (Pardes) : Tabs


qrcode for - Meri Mehbooba, Kisi Roz Tumse (Pardes) : TabsSong: Meri Mehbooba
Artist: Kumar Sanu, Alka Yagnik
From: Pardes (1997)


View:
{ Chords } - { Strum } - { Tabs } - { Lyrics } - { PDF } - { Videos }



Guitar Tabs:
Basic Verse:
E------------------------------------------
A-7-----7------7-----7---------------------
D--7--7--6-767--7--7--6-767------------44--
G---54-4--4------54-4--4------75455-754--4-
B----------------------------5-------------
e------------------------------------------

Basic Chorus:
E------------------------------------
A-7------7---------------------------
D--7---7--7---77s9-66697-------------
G---454-4--454-----------------------
B------------------------------------
e------------------------------------X2

E---------------------------------------
A---------------------------------------
D--------------------------66-77h9-66-7-
G---5--------45h7p5--522h44--4-------4--
B-53-3h5p3-53-------3-------------------
e---------------------------------------


What do these symbols mean? Reading Tabs...
http://desichords.blogspot.com/2010/04/meri-mehbooba-kisi-roz-tumse-pardes-3.html




Liked 'Meri Mehbooba, Kisi Roz Tumse (Pardes) : Tabs' enough to share / save?

Meri Mehbooba, Kisi Roz Tumse (Pardes) : Tabs

Comments: 0 comment(s)...have your say!

DesiChords Tip:

Tune your guitar before you start playing.^Top^


 


# Hosted for free on Blogspot.com / "Powered by Blogger." Get yours today at www.blogger.com
# The material collected and made available through these sites is exclusively intended for private study, research & to provide study material for musicians - in good faith. (Copyrights)
# This site uses cookies to offer you a better browsing experience. Kindly read the Terms of Service & Privacy policy and continue only if you agree.
# Copyrights, wherever applicable: IndianGuitarChords.Blogspot.Com (™ ©) / Arindam Sarkar © - MMVIII - MMXVI