Desi Chords:

0 comment(s) so far...have your say!

Samne Yeh Kaun Aaya (Kishore) : Tabs


qrcode for - Samne Yeh Kaun Aaya (Kishore) : TabsSong: Samne Yeh Kaun Aaya
Artist: Kishore Kumar, R.D. Burman
From: Jawani Diwani (1972)


View:
{ Chords } - { Strum } - { Tabs } - { Lyrics } - { PDF } - { Videos }



Guitar Tabs:
Basic Chorus (unique parts):
E------------------------------------
A-7-------------7---------67---------
D---67------------67---644-----------
G--4--64-444444--4--664--------------
B------------------------------------
e------------------------------------

E------------------------------------
A------------------------------------
D-----------6666----------67---------
G-------6-66------6-4464-4--44-------
B-554-44--------44-------------------
e------------------------------------

Rest of the song builds on these basic tabs


What do these symbols mean? Reading Tabs...
http://desichords.blogspot.com/2010/04/samne-yeh-kaun-aaya-dil-mein-hui.html




Liked 'Samne Yeh Kaun Aaya (Kishore) : Tabs' enough to share / save?

Samne Yeh Kaun Aaya (Kishore) : Tabs

Comments: 0 comment(s)...have your say!

DesiChords Tip:

Tune your guitar before you start playing.^Top^


 


# Hosted for free on Blogspot.com / "Powered by Blogger." Get yours today at www.blogger.com
# The material collected and made available through these sites is exclusively intended for private study, research & to provide study material for musicians - in good faith. (Copyrights)
# This site uses cookies to offer you a better browsing experience. Kindly read the Terms of Service & Privacy policy and continue only if you agree.
# Copyrights, wherever applicable: IndianGuitarChords.Blogspot.Com (™ ©) / Arindam Sarkar © - MMVIII - MMXVI