Desi Chords:

0 comment(s) so far...have your say!

Tum Yaad Aaye (Javed Akhtar, Alka Yagnik) : Tabs


qrcode for - Tum Yaad Aaye (Javed Akhtar, Alka Yagnik) : TabsSong: Tum Yaad Aaye
Artist: Alka Yagnik, Javed Akhtar
From: Tum Yaad Aaye (2002)


View:
{ Chords } - { Strum } - { Tabs } - { Lyrics } - { PDF } - { Videos }



Guitar Tabs:
Verse 1:
E----------------------------------------
A----------------------------------------
D----------------------------------------
G---------------6------------------6-----
B-7-57-57-777-54-457-7-57-57-777-54-4h55-
e--4--4--4------------4--4--4------------

E------------------------------------
A------------------------------------
D------------------------------------
G------------------------------------
B------------------------------------
e-457-777-(12)(11)999-9h(10)9h(10)77-

E--------------------------------------
A--------------------------------------
D--------------------------------------
G--------------------------------6-----
B-----------------------7------54-4h55-
e-457-777-(12)(11)999-54-4h54----------

E----------------------------------------
A----------------------------------------
D----------------------------------------
G---------------6------------------6-----
B-7-57-57-777-54-457-7-57-57-777-54-4h55-
e--4--4--4------------4--4--4------------


What do these symbols mean? Reading Tabs...
http://desichords.blogspot.com/2010/04/tum-yaad-aaye-javed-akhtar-alka-yagnik.html




Liked 'Tum Yaad Aaye (Javed Akhtar, Alka Yagnik) : Tabs' enough to share / save?

Tum Yaad Aaye (Javed Akhtar, Alka Yagnik) : Tabs

Comments: 0 comment(s)...have your say!

DesiChords Tip:

Tune your guitar before you start playing.^Top^


 


# Hosted for free on Blogspot.com / "Powered by Blogger." Get yours today at www.blogger.com
# The material collected and made available through these sites is exclusively intended for private study, research & to provide study material for musicians - in good faith. (Copyrights)
# This site uses cookies to offer you a better browsing experience. Kindly read the Terms of Service & Privacy policy and continue only if you agree.
# Copyrights, wherever applicable: IndianGuitarChords.Blogspot.Com (™ ©) / Arindam Sarkar © - MMVIII - MMXVI