Desi Chords:

0 comment(s) so far...have your say!

Dhoom Pichuck Dhoom : Tabs


qrcode for - Dhoom Pichuck Dhoom : TabsSong: Dhoom Pichuck
Artist: Euphoria
From: Dhoom (1998)


View:
{ Chords } - { Strum } - { Tabs } - { Lyrics } - { PDF } - { Videos }



Guitar Tabs:
Basic Verse:
E------------------------------------
A------------------------------------
D--------6-------6-------6-----6-----
G-556-653-556-653-556-653-44466------
B------------------------------------
e------------------------------------X2

E-------------------------------------------
A-------------------------------------------
D----6---6----------------6-------6------66-
G-------------6-65-4444343-4444343-444433---
B-444-444-4464-4-------------------------4--
e-------------------------------------------


What do these symbols mean? Reading Tabs....
http://desichords.blogspot.com/2010/05/dhoom-pichuck-dhoom-3-tabs-n-pdf.html




Liked 'Dhoom Pichuck Dhoom : Tabs' enough to share / save?

Dhoom Pichuck Dhoom : Tabs

Comments: 0 comment(s)...have your say!

DesiChords Tip:

Tune your guitar before you start playing.^Top^


 


# Hosted for free on Blogspot.com / "Powered by Blogger." Get yours today at www.blogger.com
# The material collected and made available through these sites is exclusively intended for private study, research & to provide study material for musicians - in good faith. (Copyrights)
# This site uses cookies to offer you a better browsing experience. Kindly read the Terms of Service & Privacy policy and continue only if you agree.
# Copyrights, wherever applicable: IndianGuitarChords.Blogspot.Com (™ ©) / Arindam Sarkar © - MMVIII - MMXVI