Desi Chords:

0 comment(s) so far...have your say!

Jeena Isi Ka Naam Hai : Tabs


qrcode for - Jeena Isi Ka Naam Hai : TabsSong: Jeena Isi Ka Naam Hai
Artist: Mukesh
From: Anari (1959)


View:
{ Chords } - { Strum } - { Tabs } - { Lyrics } - { PDF } - { Videos }



Guitar Tabs:
Basic Chorus:
E----------------------------------------------------
A----------------------------------------------------
D----------------------------------------------------
G-6-6-6-6-6-6--6-6-6-6-6----------------6------------
B--5---5---5----5---5---457-4547-4547-45-------------
e----4---4---4----4---4------------------5-578-75756-

Interludes:
E-------------------------------------------
A-------------------------------------------
D-------------------------------------------
G-99---99------9---9---9-89-6---(fast part)-
B---9----9(10)9-979-979-7---------(pause)---
e----97-------------------------------------

Basic Verse: (1st two lines; last few like chorus)
E--------------------------------------
A--------------------------------------
D--------------------------------------
G--------------------------------------
B--------------------------------------
e-(12)(11)(12)(11)(12)(11)9-99(11)(12)-

E--------------------------------------
A--------------------------------------
D--------------------------------------
G--------------------------------------
B--------------------------(10)(10)79--
e-(12)(11)(12)(11)(12)(11)9------------


What do these symbols mean? Reading Tabs...
http://desichords.blogspot.com/2010/05/jeena-isi-ka-naam-hai-3-tabs-n-pdf.html




Liked 'Jeena Isi Ka Naam Hai : Tabs' enough to share / save?

Jeena Isi Ka Naam Hai : Tabs

Comments: 0 comment(s)...have your say!

DesiChords Tip:

Tune your guitar before you start playing.^Top^


 


# Hosted for free on Blogspot.com / "Powered by Blogger." Get yours today at www.blogger.com
# The material collected and made available through these sites is exclusively intended for private study, research & to provide study material for musicians - in good faith. (Copyrights)
# This site uses cookies to offer you a better browsing experience. Kindly read the Terms of Service & Privacy policy and continue only if you agree.
# Copyrights, wherever applicable: IndianGuitarChords.Blogspot.Com (™ ©) / Arindam Sarkar © - MMVIII - MMXVI