Desi Chords:

0 comment(s) so far...have your say!

Kehna Hi Kya (Bombay : Chithra, Rahman) : Tabs


qrcode for - Kehna Hi Kya (Bombay : Chithra, Rahman) : TabsSong: Kehna Hi Kya
Artist: K. S. Chithra, A. R. Rahman
From: Bombay (1995)


View:
{ Chords } - { Strum } - { Tabs } - { Lyrics } - { PDF } - { Videos }



Guitar Tabs:
Basic Theme:
E------------------------------------
A------------------------------------
D---------------------322------------
G-2--------2112s4-11h2---------------
B--0-3p1-03--------------------------
e---0--------------------------------X2

E------------------------------------
A-----------3----32------------------
D-333-32-220-2-33--3332--------------
G----2-------------------------------
B------------------------------------
e------------------------------------X2

E------------------------------------
A------------------------------------
D-2---3------------------------------
G--000-222-02------------------------
B------------01-33-h5-3--------------
e--------------0---------------------


What do these symbols mean? Reading Tabs...
http://desichords.blogspot.com/2010/05/kehna-hi-kya-bombay-chithra-rahman-3.html




Liked 'Kehna Hi Kya (Bombay : Chithra, Rahman) : Tabs' enough to share / save?

Kehna Hi Kya (Bombay : Chithra, Rahman) : Tabs

Comments: 0 comment(s)...have your say!

DesiChords Tip:

Tune your guitar before you start playing.^Top^


 


# Hosted for free on Blogspot.com / "Powered by Blogger." Get yours today at www.blogger.com
# The material collected and made available through these sites is exclusively intended for private study, research & to provide study material for musicians - in good faith. (Copyrights)
# This site uses cookies to offer you a better browsing experience. Kindly read the Terms of Service & Privacy policy and continue only if you agree.
# Copyrights, wherever applicable: IndianGuitarChords.Blogspot.Com (™ ©) / Arindam Sarkar © - MMVIII - MMXVI