Desi Chords:

0 comment(s) so far...have your say!

Kiska Rasta Dekhe (Kishore, RD Burman) : Tabs


qrcode for - Kiska Rasta Dekhe (Kishore, RD Burman) : TabsSong: Kiska Rasta Dekhe
Artist: R D Burman, Kishore Kumar
From: Joshila (1973)


View:
{ Chords } - { Strum } - { Tabs } - { Lyrics } - { PDF } - { Videos }



Guitar Tabs:
Basic Chorus:
E------------------------------------------
A------------------------------------------
D------------------------------------------
G------------------------------------------
B------76-7------76-67-----76-7------6-667-
e-64h6-----4-64h4------64h6----4-64h6------

E------------------------------------
A------------------------------------
D------------------------------------
G-6----------------------------------
B--644-444-444-444--4-667------------
e-----------------44-----------------


What do these symbols mean? Reading Tabs...
http://desichords.blogspot.com/2010/05/kiska-rasta-dekhe-kishore-rd-burman-3.html




Liked 'Kiska Rasta Dekhe (Kishore, RD Burman) : Tabs' enough to share / save?

Kiska Rasta Dekhe (Kishore, RD Burman) : Tabs

Comments: 0 comment(s)...have your say!

DesiChords Tip:

Tune your guitar before you start playing.^Top^


 


# Hosted for free on Blogspot.com / "Powered by Blogger." Get yours today at www.blogger.com
# The material collected and made available through these sites is exclusively intended for private study, research & to provide study material for musicians - in good faith. (Copyrights)
# This site uses cookies to offer you a better browsing experience. Kindly read the Terms of Service & Privacy policy and continue only if you agree.
# Copyrights, wherever applicable: IndianGuitarChords.Blogspot.Com (™ ©) / Arindam Sarkar © - MMVIII - MMXVI