Desi Chords:

0 comment(s) so far...have your say!

Meri Bheegi Bheegi Si (Anamika) : Tabs


qrcode for - Meri Bheegi Bheegi Si (Anamika) : TabsSong: Meri Bheegi Bheegi Si
Artist: Kishore Kumar, R. D. Burman
From: Anamika


View:
{ Chords } - { Strum } - { Tabs } - { Lyrics } - { PDF } - { Videos }



Guitar Tabs:
Basic Chorus:
E------------------------------------
A------------------------------------
D-34-----34-4311-34-4-3111-34--------
G---33333--3-------3---------2-------
B------------------------------------
e------------------------------------

E------------------------------------------
A------------------------------------------
D-----------34-4311-34-431-11-343-34-------
G---3-----33--3-------3-------------333333-
B-11-1h2-1---------------------------------
e------------------------------------------


What do these symbols mean? Reading Tabs...
http://desichords.blogspot.com/2010/05/meri-bheegi-bheegi-si-anamika-3-tabs-n.html




Liked 'Meri Bheegi Bheegi Si (Anamika) : Tabs' enough to share / save?

Meri Bheegi Bheegi Si (Anamika) : Tabs

Comments: 0 comment(s)...have your say!

DesiChords Tip:

Tune your guitar before you start playing.^Top^


 


# Hosted for free on Blogspot.com / "Powered by Blogger." Get yours today at www.blogger.com
# The material collected and made available through these sites is exclusively intended for private study, research & to provide study material for musicians - in good faith. (Copyrights)
# This site uses cookies to offer you a better browsing experience. Kindly read the Terms of Service & Privacy policy and continue only if you agree.
# Copyrights, wherever applicable: IndianGuitarChords.Blogspot.Com (™ ©) / Arindam Sarkar © - MMVIII - MMXVI