Desi Chords:

2 comment(s) so far...have your say!

Zindagi Ka Safar (Kishore) : Tabs


qrcode for - Zindagi Ka Safar (Kishore) : TabsSong: Zindagi Ka Safar
Artist: Kishore Kumar
From: Safar (1970)


View:
{ Chords } - { Strum } - { Tabs } - { Lyrics } - { PDF } - { Videos }



Guitar Tabs:
Basic theme:
E------------------------------------
A-33---------------------------------
D---3-335-55531-111-11--------3-333--
G---------------------0-002-20-------
B------------------------------------
e------------------------------------

E------------------------------------
A------------------------------------
D----------------------------3-33----
G-322-322-322-3222-000-002-20--------
B------------------------------------
e------------------------------------


What do these symbols mean? Reading Tabs...
http://desichords.blogspot.com/2010/05/zindagi-ka-safar-hai-yeh-kaisa-safar.html




Liked 'Zindagi Ka Safar (Kishore) : Tabs' enough to share / save?

Zindagi Ka Safar (Kishore) : Tabs

Comments: 2 comment(s)...have your say!

Devikasaid...

The first tabs are right. But at the second, I think that you have to take the G, 2th tab and start over there. Not the 3th, it doesn't sound good in the song.

But thnx for the tabs... it's really hard to find those at the internet!

Arindam Sarkarsaid...

Thankyou for this constructive criticism. Could you please post the corrections that you feel are needed?

DesiChords Tip:

Tune your guitar before you start playing.^Top^


 


# Hosted for free on Blogspot.com / "Powered by Blogger." Get yours today at www.blogger.com
# The material collected and made available through these sites is exclusively intended for private study, research & to provide study material for musicians - in good faith. (Copyrights)
# This site uses cookies to offer you a better browsing experience. Kindly read the Terms of Service & Privacy policy and continue only if you agree.
# Copyrights, wherever applicable: IndianGuitarChords.Blogspot.Com (™ ©) / Arindam Sarkar © - MMVIII - MMXVI