Desi Chords:

0 comment(s) so far...have your say!

Aate Jaate, Maine Pyar Kiya : Tabs


qrcode for - Aate Jaate, Maine Pyar Kiya : TabsSong: Aate Jaate
Artist: S P Balasubrahmanyam, Lata Mangeshkar
From: Maine Pyar Kiya (1989)


View:
{ Chords } - { Strum } - { Tabs } - { Lyrics } - { PDF } - { Videos }



Guitar Tabs:
Basic Verse:
E-----------------------------------------------
A-6---6---6------------------------8-8----------
D--556-556-556---653-3-----------77---778---878-
G-------------353-----2-223-5p3p2--------575----
B-----------------------------------------------
e-----------------------------------------------

E-----------------------------------------------
A-6---6---6------------------------8-8----------
D--556-556-556---653-3-----------77---778---878-
G-------------353-----2-223-5p3p2--------575----
B-----------------------------------------------
e-----------------------------------------------

E------------------------------------
A------8-8--------8-8----------------
D-875-7---778-85-7---------8---------
G--------------------57-7p5----------
B------------------------------------
e------------------------------------


What do these symbols mean? Reading Tabs...
http://desichords.blogspot.com/2010/06/aate-jaate-maine-pyar-kiya-maine-pyar.html




Liked 'Aate Jaate, Maine Pyar Kiya : Tabs' enough to share / save?

Aate Jaate, Maine Pyar Kiya : Tabs

Comments: 0 comment(s)...have your say!

DesiChords Tip:

Tune your guitar before you start playing.^Top^


 


# Hosted for free on Blogspot.com / "Powered by Blogger." Get yours today at www.blogger.com
# The material collected and made available through these sites is exclusively intended for private study, research & to provide study material for musicians - in good faith. (Copyrights)
# This site uses cookies to offer you a better browsing experience. Kindly read the Terms of Service & Privacy policy and continue only if you agree.
# Copyrights, wherever applicable: IndianGuitarChords.Blogspot.Com (™ ©) / Arindam Sarkar © - MMVIII - MMXVI