Desi Chords:

0 comment(s) so far...have your say!

Koi Kahe Kehta Rahe : Tabs


qrcode for - Koi Kahe Kehta Rahe : TabsSong: Koi Kahe Kehta Rahe
Artist: Shankar Mahadevan, Shaan, KK
From: Dil Chahta Hai (2001)


View:
{ Chords } - { Strum } - { Tabs } - { Lyrics } - { PDF } - { Videos }



Guitar Tabs:
Basic Verse:
E--------------------------------------
A--------------------------------------
D--------------------------------------
G--------------------------------------
B---22--22-00004222----22--22-00004222-
e-12--12-------------12--12------------

E------------------------------------
A------------------------------------
D---46--464-64h6p4-------------------
G-43--43-----------------------------
B------------------------------------
e------------------------------------

E--------------------------------------
A--------------------------------------
D--------------------------------------
G--------------------------------------
B---22--22-00004222----22--22-00004222-
e-12--12-------------12--12------------

E------------------------------------
A------------------------------------
D---46--464-64h6p4-------------------
G-43--43-----------------------------
B------------------------------------
e------------------------------------

Basic Chorus:
E-----------------------------------------------
A-----------------------------------------------
D-----------------------------------------------
G-334--333-4--44--444-------------------------3-
B----2------2---24---24-2245-222-45--------542--
e-------------------------------------2-2h4-----

E--------------------------------------------
A--------------------------------------------
D--------------------------------------------
G-334--333-4--44--444------------------------
B----2------2---24---24-2245-222-45----------
e-----------------------------------2-2h4-22-


A------------------------------------
D---46--464-64h6p4-------------------
G-43--43-----------------------------
B------------------------------------
e------------------------------------X2


What do these symbols mean? Reading Tabs...
http://desichords.blogspot.com/2010/06/koi-kahe-kehta-rahe-3-tabs-n-pdf.html




Liked 'Koi Kahe Kehta Rahe : Tabs' enough to share / save?

Koi Kahe Kehta Rahe : Tabs

Comments: 0 comment(s)...have your say!

DesiChords Tip:

Tune your guitar before you start playing.^Top^


 


# Hosted for free on Blogspot.com / "Powered by Blogger." Get yours today at www.blogger.com
# The material collected and made available through these sites is exclusively intended for private study, research & to provide study material for musicians - in good faith. (Copyrights)
# This site uses cookies to offer you a better browsing experience. Kindly read the Terms of Service & Privacy policy and continue only if you agree.
# Copyrights, wherever applicable: IndianGuitarChords.Blogspot.Com (™ ©) / Arindam Sarkar © - MMVIII - MMXVI