Desi Chords:

0 comment(s) so far...have your say!

Kuch Tum Socho (Sonu Nigam) : Tabs


qrcode for - Kuch Tum Socho (Sonu Nigam) : TabsSong: Kuch Tum Socho
Artist: Sonu Nigam
From: Deewana (1999)


View:
{ Chords } - { Strum } - { Tabs } - { Lyrics } - { PDF } - { Videos }



Guitar Tabs:
Basic Verse 1:
E------------------------------------
A-3---3------------------------------
D--3---3-5-5-555-5h75h723------------
G---32--2----------------------------
B------------------------------------
e------------------------------------X2

E----------------------------------------------
A--------------------------------------------3-
D--------------------------------------223-20--
G---032--032--032--032p0-00000-002----2--------
B-10---10---10---01---------------0-30---------
e----------------------------------------------


What do these symbols mean? Reading Tabs...
http://desichords.blogspot.com/2010/06/kuch-tum-socho-sonu-nigam-3-tabs-n-pdf.html




Liked 'Kuch Tum Socho (Sonu Nigam) : Tabs' enough to share / save?

Kuch Tum Socho (Sonu Nigam) : Tabs

Comments: 0 comment(s)...have your say!

DesiChords Tip:

Tune your guitar before you start playing.^Top^


 


# Hosted for free on Blogspot.com / "Powered by Blogger." Get yours today at www.blogger.com
# The material collected and made available through these sites is exclusively intended for private study, research & to provide study material for musicians - in good faith. (Copyrights)
# This site uses cookies to offer you a better browsing experience. Kindly read the Terms of Service & Privacy policy and continue only if you agree.
# Copyrights, wherever applicable: IndianGuitarChords.Blogspot.Com (™ ©) / Arindam Sarkar © - MMVIII - MMXVI