Desi Chords:

0 comment(s) so far...have your say!

Main Koi Aisa Geet Gaoun : Tabs


qrcode for - Main Koi Aisa Geet Gaoun : TabsSong: Main Koi Aisa Geet
Artist: Abhijeet, Alka Yagnik
From: Yes Boss (1997)


View:
{ Chords } - { Strum } - { Tabs } - { Lyrics } - { PDF } - { Videos }



Guitar Tabs:
Basic Chorus:
E------------------------------------
A--------------------8---------------
D-6-6---6-------6---6-5-56-----------
G--3-555-33-55-5-33------------------
B-------------4----------------------
e------------------------------------

E------------------------------------
A------------------------------------
D------------------------------------
G---565---565-----66-6h8-53----------
B-44---444---44h66--4----------------
e------------------------------------

E------------------------------------
A--------------------8---------------
D-6-6---6-------6---6-5-56-----------
G--3-555-33-55-5-33------------------
B-------------4----------------------
e------------------------------------


What do these symbols mean? Reading Tabs...
http://desichords.blogspot.com/2010/06/main-koi-aisa-geet-gaoun-3-tabs-n-pdf.html




Liked 'Main Koi Aisa Geet Gaoun : Tabs' enough to share / save?

Main Koi Aisa Geet Gaoun : Tabs

Comments: 0 comment(s)...have your say!

DesiChords Tip:

Tune your guitar before you start playing.^Top^


 


# Hosted for free on Blogspot.com / "Powered by Blogger." Get yours today at www.blogger.com
# The material collected and made available through these sites is exclusively intended for private study, research & to provide study material for musicians - in good faith. (Copyrights)
# This site uses cookies to offer you a better browsing experience. Kindly read the Terms of Service & Privacy policy and continue only if you agree.
# Copyrights, wherever applicable: IndianGuitarChords.Blogspot.Com (™ ©) / Arindam Sarkar © - MMVIII - MMXVI