Desi Chords:

0 comment(s) so far...have your say!

Mere Rang Mein Rangne Wali : Tabs


qrcode for - Mere Rang Mein Rangne Wali : TabsSong: Mere Rang Mein Rangne Wali
Artist: S. P. Balasubrahmanyam
From: Maine Pyar Kiya (1989)


View:
{ Chords } - { Strum } - { Tabs } - { Lyrics } - { PDF } - { Videos }



Guitar Tabs:
Basic Chorus:
E-------------------------------------
A-666--------44---------22------------
D-------------------------------------
G----44-46864--333-13431--1110-013100-
B-------------------------------------
e-------------------------------------

E------------------------------------
A------------------------------------
D------------------------------------
G-11334----4---1h3-1-----------------
B------5-42-2h4----------------------
e------------------------------------


Basic Verse:
E------------------------------------
A------------------------------------
D----------------------------6-6--6--
G---4--4--4----43-43-43-44----3--3---
B-42-42-42-22-2--2--2----------------
e------------------------------------


E-----------------------------------------------------
A-----------------------------------------------------
D-------------------------------------------4--4--4---
G---4--4--4----43-43-43-44-431-431-431-33-31-31-31-11-
B-42-42-42-22-2--2--2---------------------------------
e-----------------------------------------------------

E------------------------------------
A------------------------------------
D------------------------------------
G-11334----4---1h3-1-----------------
B------5-42-2h4----------------------
e------------------------------------


What do these symbols mean? Reading Tabs...
http://desichords.blogspot.com/2010/07/mere-rang-mein-rangne-wali-tabs.html




Liked 'Mere Rang Mein Rangne Wali : Tabs' enough to share / save?

Mere Rang Mein Rangne Wali : Tabs

Comments: 0 comment(s)...have your say!

DesiChords Tip:

Tune your guitar before you start playing.^Top^


 


# Hosted for free on Blogspot.com / "Powered by Blogger." Get yours today at www.blogger.com
# The material collected and made available through these sites is exclusively intended for private study, research & to provide study material for musicians - in good faith. (Copyrights)
# This site uses cookies to offer you a better browsing experience. Kindly read the Terms of Service & Privacy policy and continue only if you agree.
# Copyrights, wherever applicable: IndianGuitarChords.Blogspot.Com (™ ©) / Arindam Sarkar © - MMVIII - MMXVI