Desi Chords:

0 comment(s) so far...have your say!

Aye Mere Pyaare Watan : Tabs


qrcode for - Aye Mere Pyaare Watan : TabsSong: Aye Mere Pyaare Watan
Artist: Manna Dey, Salil Choudhury, Prem Dhawan, Gulzar
From: Kabuliwala (1961)


View:
{ Chords } - { Strum } - { Tabs } - { Lyrics } - { PDF } - { Videos }



Guitar Tabs:
Basic Chorus and like parts:
E-------------------------------------
A---------------------------------6---
D-6666-----------66------------66--46-
G------535653-353---535653-3365-------
B-------------------------------------
e-------------------------------------

E------------------------------------
A-----------------------------6------
D----6----------6----------66--46----
G-353-535653-353-535653-365----------
B------------------------------------
e------------------------------------

E-------------------------------------
A---------------------------------6---
D-6666-----------66------------66--46-
G------535653-353---535653-3365-------
B-------------------------------------
e-------------------------------------


Basic Verse:
E------------------------------------
A------------------------------------
D------------------------------------
G------------------6-5356------------
B-44-44-45-54-45454------------------
e---------4--------------------------X3

E-------------------------------------
A---------------------------------6---
D-6666-----------66------------66--46-
G------535653-353---535653-3365-------
B-------------------------------------
e-------------------------------------

E------------------------------------
A-----------------------------6------
D----6----------6----------66--46----
G-353-535653-353-535653-365----------
B------------------------------------
e------------------------------------


What do these symbols mean? Reading Tabs...
http://desichords.blogspot.com/2010/08/aye-mere-pyaare-watan-tabs.html




Liked 'Aye Mere Pyaare Watan : Tabs' enough to share / save?

Aye Mere Pyaare Watan : Tabs

Comments: 0 comment(s)...have your say!

DesiChords Tip:

Tune your guitar before you start playing.^Top^


 


# Hosted for free on Blogspot.com / "Powered by Blogger." Get yours today at www.blogger.com
# The material collected and made available through these sites is exclusively intended for private study, research & to provide study material for musicians - in good faith. (Copyrights)
# This site uses cookies to offer you a better browsing experience. Kindly read the Terms of Service & Privacy policy and continue only if you agree.
# Copyrights, wherever applicable: IndianGuitarChords.Blogspot.Com (™ ©) / Arindam Sarkar © - MMVIII - MMXVI