Desi Chords:

0 comment(s) so far...have your say!

Breathless (Shankar Mahadevan) : Tabs


qrcode for - Breathless (Shankar Mahadevan) : TabsSong: Breathless (Koi Jo Mila To Mujhe)
Artist: Shankar Mahadevan, Javed Akhtar
From: Breathless (1998)


View:
{ Chords } - { Strum } - { Tabs } - { Lyrics } - { PDF } - { Videos }



Guitar Tabs:
E-----------------------------------------
A-----------------------------------------
D-----------------------------4--4--4---4-
G----3---3---3---3---3---3---1--1--1---1--
B-020-020-020-020-020-020--00--0--00-00---
e-----------------------------------------

E---------------------------------------------------------
A---------------------------------------------------------
D-222-----------222-----------22-----------222------------
G---------------------------------------------------------
B----22222-20000---22222-20000--22224-44444---22224-44444-
e------------------------------------0-------------0------

E-----------------------------------------
A-----------------------------------------
D-----------------------------------------
G-------------------------------------313-
B---2--2--2--2-44----44---------442200----
e-00-00-00-00----2222--222-42200---------- (and so on and so forth)


What do these symbols mean? Reading Tabs...
http://desichords.blogspot.com/2010/08/breathless-shankar-mahadevan-tabs.html




Liked 'Breathless (Shankar Mahadevan) : Tabs' enough to share / save?

Breathless (Shankar Mahadevan) : Tabs

Comments: 0 comment(s)...have your say!

DesiChords Tip:

Tune your guitar before you start playing.^Top^


 


# Hosted for free on Blogspot.com / "Powered by Blogger." Get yours today at www.blogger.com
# The material collected and made available through these sites is exclusively intended for private study, research & to provide study material for musicians - in good faith. (Copyrights)
# This site uses cookies to offer you a better browsing experience. Kindly read the Terms of Service & Privacy policy and continue only if you agree.
# Copyrights, wherever applicable: IndianGuitarChords.Blogspot.Com (™ ©) / Arindam Sarkar © - MMVIII - MMXVI