Desi Chords:

0 comment(s) so far...have your say!

Mehndi Laga Ke Rakhna (DDLJ) : Tabs


qrcode for - Mehndi Laga Ke Rakhna (DDLJ) : TabsSong: Mehndi Laga Ke Rakhna
Artist: Udit Narayan, Lata Mangeshkar
From: Dilwale Dulhania Le Jayenge (1995)


View:
{ Chords } - { Strum } - { Tabs } - { Lyrics } - { PDF } - { Videos }



Guitar Tabs:
Basic ("Mehndi laga rakhna" and like):
E------------------------------------
A-5------3-------5---------3---------
D-----5-----53-5-----5--------53-5---
G--332-32-22--2---332-33h52-22--2----
B------------------------------------
e------------------------------------

E----------------------------------------
A----------------------------------------
D-5---------------------5------3---------
G------------233-2-5553-----5------53-5--
B--3333-43131------------332-32--22--2---
e----------------------------------------

Basic ("Ud-udke teri zulfein" and like):
E------------------------------------------------
A------------------------------------------------
D-53h55-555-5p33h555-555-----------------------5-
G---------------------------------535-22-2-232---
B----------3------------3-34h6p445------3--------
e------------------------------------------------X2

E------------------------------------
A-5------3-------5---------3---------
D-----5-----53-5-----5--------53-5---
G--332-32-22--2---332-33h52-22--2----
B------------------------------------
e------------------------------------

E----------------------------------------
A----------------------------------------
D-5---------------------5------3---------
G------------233-2-5553-----5------53-5--
B--3333-43131------------332-32--22--2---
e----------------------------------------


What do these symbols mean? Reading Tabs...
http://desichords.blogspot.com/2010/08/mehndi-laga-ke-rakhna-ddlj-tabs.html




Liked 'Mehndi Laga Ke Rakhna (DDLJ) : Tabs' enough to share / save?

Mehndi Laga Ke Rakhna (DDLJ) : Tabs

Comments: 0 comment(s)...have your say!

DesiChords Tip:

Tune your guitar before you start playing.^Top^


 


# Hosted for free on Blogspot.com / "Powered by Blogger." Get yours today at www.blogger.com
# The material collected and made available through these sites is exclusively intended for private study, research & to provide study material for musicians - in good faith. (Copyrights)
# This site uses cookies to offer you a better browsing experience. Kindly read the Terms of Service & Privacy policy and continue only if you agree.
# Copyrights, wherever applicable: IndianGuitarChords.Blogspot.Com (™ ©) / Arindam Sarkar © - MMVIII - MMXVI