Desi Chords:

0 comment(s) so far...have your say!

Mile Sur Mera Tumhara : Tabs


qrcode for - Mile Sur Mera Tumhara : TabsSong:Ek Sur (Mile Sur Mera Tumhara)
Artist: Ashok Patki, Louis Banks (Ogilvy & Mather)
From: Doordarshan (1988)


View:
{ Chords } - { Strum } - { Tabs } - { Lyrics } - { PDF } - { Videos }



Guitar Tabs:
Basic Tabs of the Recurring Theme:
E------------------------------------
A------------------------------------
D-------3----03-15-31p0--------------
G-333-20--22-------------------------
B------------------------------------
e------------------------------------

Staring Verse:
E------------------------------------
A------------------------------------
D-------3----03-15-31p0--------------
G-333-20--22-------------------------
B------------------------------------
e------------------------------------

E------------------------------------
A------------------------------------
D----------------------3-------------
G-3------------3-33-320-222----------
B--13-33-1h3313----------------------
e------------------------------------

E------------------------------------
A------------------------------------
D---------------3------1h3-1p0-------
G-23---------320-0-0h10--------------
B----33-1h3p1------------------------
e------------------------------------

E------------------------------------
A------------------------------------
D-------3----03-15-31p0--------3-----
G-333-20--22-------------333-20-22---
B------------------------------------
e------------------------------------


What do these symbols mean? Reading Tabs...
http://desichords.blogspot.com/2010/08/mile-sur-mera-tumhara-tabs.html




Liked 'Mile Sur Mera Tumhara : Tabs' enough to share / save?

Mile Sur Mera Tumhara : Tabs

Comments: 0 comment(s)...have your say!

DesiChords Tip:

Tune your guitar before you start playing.^Top^


 


# Hosted for free on Blogspot.com / "Powered by Blogger." Get yours today at www.blogger.com
# The material collected and made available through these sites is exclusively intended for private study, research & to provide study material for musicians - in good faith. (Copyrights)
# This site uses cookies to offer you a better browsing experience. Kindly read the Terms of Service & Privacy policy and continue only if you agree.
# Copyrights, wherever applicable: IndianGuitarChords.Blogspot.Com (™ ©) / Arindam Sarkar © - MMVIII - MMXVI