Desi Chords:

0 comment(s) so far...have your say!

O Humdum Suniyo Re (Saathiya) : Tabs


qrcode for - O Humdum Suniyo Re (Saathiya) : TabsSong: O Humdum Suniyo Re
Artist: Kunal Ganjawala, KK, Shaan, Pravin Mani
From: Saathiya (2002)


View:
{ Chords } - { Strum } - { Tabs } - { Lyrics } - { PDF } - { Videos }



Guitar Tabs:
Oh humdum! Oh humdum, suniyo re! {
E------------------------------------
A------------------------------------
D------6s8------6s8------------------
G-66-66---666-66---666---------------
B---4--------4--------4--------------
e------------------------------------

E-------------------------------------
A-------------------------------------
D--------------------8----------------
G-------------------6-6-----------5---
B-4h664-4h6664-4h666---4-2h4-4h64-----
e-------------------------------------}x2


{Oh suniyo re! Oh janieyaa re!
E------------------------------------------
A------------------------------------------
D-------6s8-------6s8--------6s8-------6s8-
G-6s5-55---6h84-55-----6s5-55---6h84-55----
B------------------------------------------
e------------------------------------------}


{Dheem dheem tana na...
E------------------------------------
A------------------------------------
D------------------------------------
G-66-6-6---------6----6-6s8----------
B-----4-4-44-44-4-4--4-4-------------
e------------------44----------------}x2


What do these symbols mean? Reading Tabs...
http://desichords.blogspot.com/2010/08/o-humdum-suniyo-re-saathiya-tabs.html




Liked 'O Humdum Suniyo Re (Saathiya) : Tabs' enough to share / save?

O Humdum Suniyo Re (Saathiya) : Tabs

Comments: 0 comment(s)...have your say!

DesiChords Tip:

Tune your guitar before you start playing.^Top^


 


# Hosted for free on Blogspot.com / "Powered by Blogger." Get yours today at www.blogger.com
# The material collected and made available through these sites is exclusively intended for private study, research & to provide study material for musicians - in good faith. (Copyrights)
# This site uses cookies to offer you a better browsing experience. Kindly read the Terms of Service & Privacy policy and continue only if you agree.
# Copyrights, wherever applicable: IndianGuitarChords.Blogspot.Com (™ ©) / Arindam Sarkar © - MMVIII - MMXVI