Desi Chords:

0 comment(s) so far...have your say!

Ho Gaya Hai Tujhko To Pyar Sajna (DDLJ) : Tabs


qrcode for - Ho Gaya Hai Tujhko To Pyar Sajna (DDLJ) : TabsSong: Ho Gaya Hai Tujhko To Pyar Sajna (Na Jaane Mere Dil Ko Kya Ho Gaya)
Artist: Lata Mangeshkar, Udit Narayan
From: Dilwale Dulhania Le Jayenge (1995)


View:
{ Chords } - { Strum } - { Tabs } - { Lyrics } - { PDF } - { Videos }



Guitar Tabs:
Basic Chorus 1, 5:
(Na jaane mere dilko kya ho gayaa)
E------------------------------------
A-5---------------5------------------
D--5755-755-7----7-4754-754-755------
G------------33h5--------------------
B------------------------------------
e------------------------------------

Basic Chorus 2, 3, 4:
(Ho gayaa hai tujhko to pyaar, sajnaa!)
E--------------------------------------------------
A--------------------------------------------------
D-5-------555--------5735-735-------------------75-
G---5-35------5--------------32-23---------35-53---
B--3-3--43---3-3-3532-------------1h3-1-433--3-----
e--------------------------------------1-----------

Basic Verse 1,2:
(Dekha na tuney... / Aye waqt ruk ja...)
E------------------------------------
A------------------------------------
D------------------------------------
G-33233-235--2-2202-5-3200-----------
B----------33------------------------
e---------------------------------X2-

E------------------------------------
A------------------------------------
D-------------------35s75------------
G-35s75-23s53-35s775-----------------
B------------------------------------
e------------------------------------


What do these symbols mean? Reading Tabs...
http://desichords.blogspot.com/2010/09/ho-gaya-hai-tujhko-to-pyar-sajna-ddlj.html




Liked 'Ho Gaya Hai Tujhko To Pyar Sajna (DDLJ) : Tabs' enough to share / save?

Ho Gaya Hai Tujhko To Pyar Sajna (DDLJ) : Tabs

Comments: 0 comment(s)...have your say!

DesiChords Tip:

Tune your guitar before you start playing.^Top^


 


# Hosted for free on Blogspot.com / "Powered by Blogger." Get yours today at www.blogger.com
# The material collected and made available through these sites is exclusively intended for private study, research & to provide study material for musicians - in good faith. (Copyrights)
# This site uses cookies to offer you a better browsing experience. Kindly read the Terms of Service & Privacy policy and continue only if you agree.
# Copyrights, wherever applicable: IndianGuitarChords.Blogspot.Com (™ ©) / Arindam Sarkar © - MMVIII - MMXVI