Desi Chords:

0 comment(s) so far...have your say!

Mumma, Meri Maa (Dasvidaniya) : Tabs


qrcode for - Mumma, Meri Maa (Dasvidaniya) : TabsSong: Mumma
Artist: Kailash Kher
From: Dasvidaniya (2008)


View:
{ Chords } - { Strum } - { Tabs } - { Lyrics } - { PDF } - { Videos }



Guitar Tabs:
Basic Theme:
E-----------------------------------------
A-----------------------------------------
D-4-334-------4p3-34-------------------34-
G------3p13s43-------3p1-34-334-3p13s43---
B-----------------------------------------
e-----------------------------------------

Basic Verses:
E------------------------------------
A------------------------------------
D------------------------------------
G--43333-31334--43333-31334----------
B-2------------2---------------------
e------------------------------------

E------------------------------------
A------------------------------------
D------------------------43----------
G------43-1134------43-13------------
B--22h4---------22h4-----------------
e-2------------2---------------------

E-----------------------------------------
A-----------------------------------------
D-4-334-------4p3-34-------------------34-
G------3p13s43-------3p1-34-334-3p13s43---
B-----------------------------------------
e-----------------------------------------


What do these symbols mean? Reading Tabs...
http://desichords.blogspot.com/2010/09/mumma-meri-maa-dasvidaniya-tabs.html




Liked 'Mumma, Meri Maa (Dasvidaniya) : Tabs' enough to share / save?

Mumma, Meri Maa (Dasvidaniya) : Tabs

Comments: 0 comment(s)...have your say!

DesiChords Tip:

Tune your guitar before you start playing.^Top^


 


# Hosted for free on Blogspot.com / "Powered by Blogger." Get yours today at www.blogger.com
# The material collected and made available through these sites is exclusively intended for private study, research & to provide study material for musicians - in good faith. (Copyrights)
# This site uses cookies to offer you a better browsing experience. Kindly read the Terms of Service & Privacy policy and continue only if you agree.
# Copyrights, wherever applicable: IndianGuitarChords.Blogspot.Com (™ ©) / Arindam Sarkar © - MMVIII - MMXVI