Desi Chords:

0 comment(s) so far...have your say!

Piyu Bole, Piya Bole (Parineeta) : Tabs


qrcode for - Piyu Bole, Piya Bole (Parineeta) : TabsSong: Piyu Bole
Artist: Sonu Nigam, Shreya Ghoshal
From: Parineeta (2005)


View:
{ Chords } - { Strum } - { Tabs } - { Lyrics } - { PDF } - { Videos }



Guitar Tabs:
Intro:
...Hmm hmm hmm...You are mine....
E------------------------------------
A------------------------------------
D------------------------------------
G-656------656-656-656------656-656--
B----4-4676---4-------4-4676---4-----
e------------------------------------x2


Basic Verse 1:
Dil ki jo baatein hain....
E------------------------------------
A------------------------------------
D------------------------------------
G-6-----6-6-----6-6--------------6---
B---4-4-----4-4-----4-4-6-7-4h6-4----
e--4---4---4---4---4----------------- x2


Basic Chorus:
Piyu bole, piya bole...
E------------------------------------
A------------------------------------
D------------------------------------
G-656------656-656-656------656-656--
B----4-4676---4-------4-4676---4-----
e------------------------------------ x2


Basic Verses 2 / 3:
Ek nadi se maine puchha.../Maine puchha ek ghata se...
E------------------------------------
A------------------------------------
D------------------------------------
G------------------------------------
B---9-9--9-9-9-9-79-9----------------
e-99-6-99-6---6----6-----------------

Door tere pe-ka ghar hai.../Pyaas ki bhari zameen hai...
E------------------------------------
A------------------------------------
D------------------------------------
G------------------------------------
B-9------------9---------------------
e--(11)(11)(11)-(11)(11)(11)-98689---

Thoda woh ghabraayi.../Thoda woh ghurraayi...
E------------------------------------
A------------------------------------
D------------------------------------
G------------------------------------
B---9-9--9-9-9-9-79-9----------------
e-99-6-99-6---6----6----------------- x2


What do these symbols mean? Reading Tabs...
http://desichords.blogspot.com/2010/09/piyu-bole-piya-bole-parineeta-tabs.html




Liked 'Piyu Bole, Piya Bole (Parineeta) : Tabs' enough to share / save?

Piyu Bole, Piya Bole (Parineeta) : Tabs

Comments: 0 comment(s)...have your say!

DesiChords Tip:

Tune your guitar before you start playing.^Top^


 


# Hosted for free on Blogspot.com / "Powered by Blogger." Get yours today at www.blogger.com
# The material collected and made available through these sites is exclusively intended for private study, research & to provide study material for musicians - in good faith. (Copyrights)
# This site uses cookies to offer you a better browsing experience. Kindly read the Terms of Service & Privacy policy and continue only if you agree.
# Copyrights, wherever applicable: IndianGuitarChords.Blogspot.Com (™ ©) / Arindam Sarkar © - MMVIII - MMXVI