Desi Chords:

0 comment(s) so far...have your say!

Tere Mere Milan Ki Yeh Raina : Tabs


qrcode for - Tere Mere Milan Ki Yeh Raina : TabsSong: Tere Mere Milan Ki Yeh Raina
Artist: Lata Mangeshkar, Kishore Kumar
From: Abhimaan (1973)


View:
{ Chords } - { Strum } - { Tabs } - { Lyrics } - { PDF } - { Videos }



Guitar Tabs:
Basic Theme:
E------------------------------------------
A------------------------------------------
D------------------------------------------
G------------------------------------------
B-4---------4---------4---------4----------
e--6666-8643-6666-8643-8888-9864-6666-8643-


Basic Verse: (rest similar)
Tere mere milan ki yeh raina...
E------------------------------------
A------------------------------------
D-66s8-----------65-6----------------
G-----33s5-3-6-53----3---------------
B-----------4------------------------
e---------------------------------X2-

Naya koi gul khilaayegi...
E------------------------------------
A------------------------------------
D------------------------------------
G------------------------------------
B-33-334-343-21-33-334-343-21--------
e------------------------------------

Tabhi to chanchal hain tere naina...Dekho naa! Dekho naa!
E------------------------------------
A------------------------------------
D-66------------65---66s88-6---------
G---33-35-3-6-53------------5h6-53---
B----------4-------------------------
e------------------------------------

Tere mere milan ki yeh raina...
E------------------------------------
A------------------------------------
D-66s8-----------65-6----------------
G-----33s5-3-6-53----3---------------
B-----------4------------------------
e-----------------------------------


What do these symbols mean? Reading Tabs...
http://desichords.blogspot.com/2010/09/tere-mere-milan-ki-yeh-raina-tabs.html




Liked 'Tere Mere Milan Ki Yeh Raina : Tabs' enough to share / save?

Tere Mere Milan Ki Yeh Raina : Tabs

Comments: 0 comment(s)...have your say!

DesiChords Tip:

Tune your guitar before you start playing.^Top^


 


# Hosted for free on Blogspot.com / "Powered by Blogger." Get yours today at www.blogger.com
# The material collected and made available through these sites is exclusively intended for private study, research & to provide study material for musicians - in good faith. (Copyrights)
# This site uses cookies to offer you a better browsing experience. Kindly read the Terms of Service & Privacy policy and continue only if you agree.
# Copyrights, wherever applicable: IndianGuitarChords.Blogspot.Com (™ ©) / Arindam Sarkar © - MMVIII - MMXVI